  0
SECTION
  2
HEADER
  9
$ACADVER
  1
AC1018
  9
$ACADMAINTVER
 70
     0
  9
$DWGCODEPAGE
  3
ASCII
  9
$INSBASE
 10
0.0
 20
0.0
 30
0.0
  9
$EXTMIN
 10
1.000000000000000E+20
 20
1.000000000000000E+20
 30
1.000000000000000E+20
  9
$EXTMAX
 10
-1.000000000000000E+20
 20
-1.000000000000000E+20
 30
-1.000000000000000E+20
  9
$LIMMIN
 10
0.0
 20
0.0
  9
$LIMMAX
 10
12.0
 20
9.0
  9
$ORTHOMODE
 70
     0
  9
$REGENMODE
 70
     1
  9
$FILLMODE
 70
     1
  9
$QTEXTMODE
 70
     0
  9
$MIRRTEXT
 70
     1
  9
$LTSCALE
 40
1.0
  9
$ATTMODE
 70
     1
  9
$TEXTSIZE
 40
0.2
  9
$TRACEWID
 40
0.05
  9
$TEXTSTYLE
  7
Standard
  9
$CLAYER
  8
0
  9
$CELTYPE
  6
ByLayer
  9
$CECOLOR
 62
   256
  9
$CELTSCALE
 40
1.0
  9
$DISPSILH
 70
     0
  9
$DIMSCALE
 40
1.0
  9
$DIMASZ
 40
0.18
  9
$DIMEXO
 40
0.0625
  9
$DIMDLI
 40
0.38
  9
$DIMRND
 40
0.0
  9
$DIMDLE
 40
0.0
  9
$DIMEXE
 40
0.18
  9
$DIMTP
 40
0.0
  9
$DIMTM
 40
0.0
  9
$DIMTXT
 40
0.18
  9
$DIMCEN
 40
0.09
  9
$DIMTSZ
 40
0.0
  9
$DIMTOL
 70
     0
  9
$DIMLIM
 70
     0
  9
$DIMTIH
 70
     1
  9
$DIMTOH
 70
     1
  9
$DIMSE1
 70
     0
  9
$DIMSE2
 70
     0
  9
$DIMTAD
 70
     0
  9
$DIMZIN
 70
     0
  9
$DIMBLK
  1

  9
$DIMASO
 70
     1
  9
$DIMSHO
 70
     1
  9
$DIMPOST
  1

  9
$DIMAPOST
  1

  9
$DIMALT
 70
     0
  9
$DIMALTD
 70
     2
  9
$DIMALTF
 40
25.4
  9
$DIMLFAC
 40
1.0
  9
$DIMTOFL
 70
     0
  9
$DIMTVP
 40
0.0
  9
$DIMTIX
 70
     0
  9
$DIMSOXD
 70
     0
  9
$DIMSAH
 70
     0
  9
$DIMBLK1
  1

  9
$DIMBLK2
  1

  9
$DIMSTYLE
  2
Standard
  9
$DIMCLRD
 70
     0
  9
$DIMCLRE
 70
     0
  9
$DIMCLRT
 70
     0
  9
$DIMTFAC
 40
1.0
  9
$DIMGAP
 40
0.09
  9
$DIMJUST
 70
     0
  9
$DIMSD1
 70
     0
  9
$DIMSD2
 70
     0
  9
$DIMTOLJ
 70
     1
  9
$DIMTZIN
 70
     0
  9
$DIMALTZ
 70
     0
  9
$DIMALTTZ
 70
     0
  9
$DIMUPT
 70
     0
  9
$DIMDEC
 70
     4
  9
$DIMTDEC
 70
     4
  9
$DIMALTU
 70
     2
  9
$DIMALTTD
 70
     2
  9
$DIMTXSTY
  7
Standard
  9
$DIMAUNIT
 70
     0
  9
$DIMADEC
 70
     0
  9
$DIMALTRND
 40
0.0
  9
$DIMAZIN
 70
     0
  9
$DIMDSEP
 70
    46
  9
$DIMATFIT
 70
     3
  9
$DIMFRAC
 70
     0
  9
$DIMLDRBLK
  1

  9
$DIMLUNIT
 70
     2
  9
$DIMLWD
 70
    -2
  9
$DIMLWE
 70
    -2
  9
$DIMTMOVE
 70
     0
  9
$LUNITS
 70
     2
  9
$LUPREC
 70
     4
  9
$SKETCHINC
 40
0.1
  9
$FILLETRAD
 40
0.5
  9
$AUNITS
 70
     0
  9
$AUPREC
 70
     0
  9
$MENU
  1
.
  9
$ELEVATION
 40
0.0
  9
$PELEVATION
 40
0.0
  9
$THICKNESS
 40
0.0
  9
$LIMCHECK
 70
     0
  9
$CHAMFERA
 40
0.5
  9
$CHAMFERB
 40
0.5
  9
$CHAMFERC
 40
1.0
  9
$CHAMFERD
 40
0.0
  9
$SKPOLY
 70
     0
  9
$TDCREATE
 40
2456195.324730972
  9
$TDUCREATE
 40
2456195.241397639
  9
$TDUPDATE
 40
2456195.324730984
  9
$TDUUPDATE
 40
2456195.24139765
  9
$TDINDWG
 40
0.0000000116
  9
$TDUSRTIMER
 40
0.0000000116
  9
$USRTIMER
 70
     1
  9
$ANGBASE
 50
0.0
  9
$ANGDIR
 70
     0
  9
$PDMODE
 70
     0
  9
$PDSIZE
 40
0.0
  9
$PLINEWID
 40
0.0
  9
$SPLFRAME
 70
     0
  9
$SPLINETYPE
 70
     6
  9
$SPLINESEGS
 70
     8
  9
$HANDSEED
  5
C2
  9
$SURFTAB1
 70
     6
  9
$SURFTAB2
 70
     6
  9
$SURFTYPE
 70
     6
  9
$SURFU
 70
     6
  9
$SURFV
 70
     6
  9
$UCSBASE
  2

  9
$UCSNAME
  2

  9
$UCSORG
 10
0.0
 20
0.0
 30
0.0
  9
$UCSXDIR
 10
1.0
 20
0.0
 30
0.0
  9
$UCSYDIR
 10
0.0
 20
1.0
 30
0.0
  9
$UCSORTHOREF
  2

  9
$UCSORTHOVIEW
 70
     0
  9
$UCSORGTOP
 10
0.0
 20
0.0
 30
0.0
  9
$UCSORGBOTTOM
 10
0.0
 20
0.0
 30
0.0
  9
$UCSORGLEFT
 10
0.0
 20
0.0
 30
0.0
  9
$UCSORGRIGHT
 10
0.0
 20
0.0
 30
0.0
  9
$UCSORGFRONT
 10
0.0
 20
0.0
 30
0.0
  9
$UCSORGBACK
 10
0.0
 20
0.0
 30
0.0
  9
$PUCSBASE
  2

  9
$PUCSNAME
  2

  9
$PUCSORG
 10
0.0
 20
0.0
 30
0.0
  9
$PUCSXDIR
 10
1.0
 20
0.0
 30
0.0
  9
$PUCSYDIR
 10
0.0
 20
1.0
 30
0.0
  9
$PUCSORTHOREF
  2

  9
$PUCSORTHOVIEW
 70
     0
  9
$PUCSORGTOP
 10
0.0
 20
0.0
 30
0.0
  9
$PUCSORGBOTTOM
 10
0.0
 20
0.0
 30
0.0
  9
$PUCSORGLEFT
 10
0.0
 20
0.0
 30
0.0
  9
$PUCSORGRIGHT
 10
0.0
 20
0.0
 30
0.0
  9
$PUCSORGFRONT
 10
0.0
 20
0.0
 30
0.0
  9
$PUCSORGBACK
 10
0.0
 20
0.0
 30
0.0
  9
$USERI1
 70
     0
  9
$USERI2
 70
     0
  9
$USERI3
 70
     0
  9
$USERI4
 70
     0
  9
$USERI5
 70
     0
  9
$USERR1
 40
0.0
  9
$USERR2
 40
0.0
  9
$USERR3
 40
0.0
  9
$USERR4
 40
0.0
  9
$USERR5
 40
0.0
  9
$WORLDVIEW
 70
     1
  9
$SHADEDGE
 70
     3
  9
$SHADEDIF
 70
    70
  9
$TILEMODE
 70
     1
  9
$MAXACTVP
 70
    64
  9
$PINSBASE
 10
0.0
 20
0.0
 30
0.0
  9
$PLIMCHECK
 70
     0
  9
$PEXTMIN
 10
1.000000000000000E+20
 20
1.000000000000000E+20
 30
1.000000000000000E+20
  9
$PEXTMAX
 10
-1.000000000000000E+20
 20
-1.000000000000000E+20
 30
-1.000000000000000E+20
  9
$PLIMMIN
 10
0.0
 20
0.0
  9
$PLIMMAX
 10
12.0
 20
9.0
  9
$UNITMODE
 70
     0
  9
$VISRETAIN
 70
     1
  9
$PLINEGEN
 70
     0
  9
$PSLTSCALE
 70
     1
  9
$TREEDEPTH
 70
  3020
  9
$CMLSTYLE
  2
Standard
  9
$CMLJUST
 70
     0
  9
$CMLSCALE
 40
1.0
  9
$PROXYGRAPHICS
 70
     1
  9
$MEASUREMENT
 70
     0
  9
$CELWEIGHT
370
    -1
  9
$ENDCAPS
280
     0
  9
$JOINSTYLE
280
     0
  9
$LWDISPLAY
290
     1
  9
$INSUNITS
 70
     1
  9
$HYPERLINKBASE
  1

  9
$STYLESHEET
  1

  9
$XEDIT
290
     1
  9
$CEPSNTYPE
380
     0
  9
$PSTYLEMODE
290
     1
  9
$FINGERPRINTGUID
  2
{527AA128-6066-4165-ACB6-798AC16B8954}
  9
$VERSIONGUID
  2
{FAEB1C32-E019-11D5-929B-00C0DF256EC4}
  9
$EXTNAMES
290
     1
  9
$PSVPSCALE
 40
0.0
  9
$OLESTARTUP
290
     0
  9
$SORTENTS
280
   127
  9
$INDEXCTL
280
     0
  9
$HIDETEXT
280
     1
  9
$XCLIPFRAME
290
     0
  9
$HALOGAP
280
     0
  9
$OBSCOLOR
 70
   257
  9
$OBSLTYPE
280
     0
  9
$INTERSECTIONDISPLAY
280
     0
  9
$INTERSECTIONCOLOR
 70
   257
  9
$DIMASSOC
280
     2
  9
$PROJECTNAME
  1

  0
ENDSEC
  0
SECTION
  2
CLASSES
  0
CLASS
  1
ACDBDICTIONARYWDFLT
  2
AcDbDictionaryWithDefault
  3
ObjectDBX Classes
 90
        0
 91
        3
280
     0
281
     0
  0
CLASS
  1
VISUALSTYLE
  2
AcDbVisualStyle
  3
ObjectDBX Classes
 90
     4095
 91
        3
280
     0
281
     0
  0
ENDSEC
  0
SECTION
  2
TABLES
  0
TABLE
  2
VPORT
  5
8
330
0
100
AcDbSymbolTable
 70
     1
  0
VPORT
  5
29
330
8
100
AcDbSymbolTableRecord
100
AcDbViewportTableRecord
  2
*Active
 70
     0
 10
0.0
 20
0.0
 11
1.0
 21
1.0
 12
0.0
 22
0.0
 13
0.0
 23
0.0
 14
0.5
 24
0.5
 15
0.5
 25
0.5
 16
0.0
 26
0.0
 36
1.0
 17
99.99999134591444
 27
101.9276957963819
 37
0.0
 40
98.07228689544698
 41
2.039311909847122
 42
50.0
 43
0.0
 44
0.0
 50
0.0
 51
0.0
 71
     0
 72
   100
 73
     1
 74
     3
 75
     0
 76
     0
 77
     0
 78
     0
281
     0
 65
     1
110
0.0
120
0.0
130
0.0
111
1.0
121
0.0
131
0.0
112
0.0
122
1.0
132
0.0
 79
     0
146
0.0
  0
ENDTAB
  0
TABLE
  2
LTYPE
  5
5
330
0
100
AcDbSymbolTable
 70
     1
  0
LTYPE
  5
14
330
5
100
AcDbSymbolTableRecord
100
AcDbLinetypeTableRecord
  2
ByBlock
 70
     0
  3

 72
    65
 73
     0
 40
0.0
  0
LTYPE
  5
15
330
5
100
AcDbSymbolTableRecord
100
AcDbLinetypeTableRecord
  2
ByLayer
 70
     0
  3

 72
    65
 73
     0
 40
0.0
  0
LTYPE
  5
16
330
5
100
AcDbSymbolTableRecord
100
AcDbLinetypeTableRecord
  2
Continuous
 70
     0
  3
Solid line
 72
    65
 73
     0
 40
0.0
  0
ENDTAB
  0
TABLE
  2
LAYER
  5
2
330
0
100
AcDbSymbolTable
 70
     2
  0
LAYER
  5
10
330
2
100
AcDbSymbolTableRecord
100
AcDbLayerTableRecord
  2
0
 70
     0
 62
     7
  6
Continuous
370
    -3
390
F
  0
LAYER
  5
3B
330
2
100
AcDbSymbolTableRecord
100
AcDbLayerTableRecord
  2
Vrstva 1
 70
     0
 62
     7
  6
Continuous
370
    -3
390
F
  0
ENDTAB
  0
TABLE
  2
STYLE
  5
3
330
0
100
AcDbSymbolTable
 70
     1
  0
STYLE
  5
11
330
3
100
AcDbSymbolTableRecord
100
AcDbTextStyleTableRecord
  2
Standard
 70
     0
 40
0.0
 41
1.0
 50
0.0
 71
     0
 42
0.2
  3
txt
  4

  0
ENDTAB
  0
TABLE
  2
VIEW
  5
6
330
0
100
AcDbSymbolTable
 70
     0
  0
ENDTAB
  0
TABLE
  2
UCS
  5
7
330
0
100
AcDbSymbolTable
 70
     0
  0
ENDTAB
  0
TABLE
  2
APPID
  5
9
330
0
100
AcDbSymbolTable
 70
     1
  0
APPID
  5
12
330
9
100
AcDbSymbolTableRecord
100
AcDbRegAppTableRecord
  2
ACAD
 70
     0
  0
ENDTAB
  0
TABLE
  2
DIMSTYLE
  5
A
330
0
100
AcDbSymbolTable
 70
     1
100
AcDbDimStyleTable
  0
DIMSTYLE
105
27
330
A
100
AcDbSymbolTableRecord
100
AcDbDimStyleTableRecord
  2
Standard
 70
     0
340
11
  0
ENDTAB
  0
TABLE
  2
BLOCK_RECORD
  5
1
330
0
100
AcDbSymbolTable
 70
     2
  0
BLOCK_RECORD
  5
1F
330
1
100
AcDbSymbolTableRecord
100
AcDbBlockTableRecord
  2
*Model_Space
340
22
  0
BLOCK_RECORD
  5
1B
330
1
100
AcDbSymbolTableRecord
100
AcDbBlockTableRecord
  2
*Paper_Space
340
1E
  0
BLOCK_RECORD
  5
23
330
1
100
AcDbSymbolTableRecord
100
AcDbBlockTableRecord
  2
*Paper_Space0
340
26
  0
BLOCK_RECORD
  5
3C
330
1
100
AcDbSymbolTableRecord
100
AcDbBlockTableRecord
  2
block 2
340
0
102
{BLKREFS
331
3D
102
}
  0
ENDTAB
  0
ENDSEC
  0
SECTION
  2
BLOCKS
  0
BLOCK
  5
20
330
1F
100
AcDbEntity
  8
0
100
AcDbBlockBegin
  2
*Model_Space
 70
     0
 71
     0
 10
0.0
 20
0.0
 30
0.0
  3
*Model_Space
  1

  0
ENDBLK
  5
21
330
1F
100
AcDbEntity
  8
0
100
AcDbBlockEnd
  0
BLOCK
  5
1C
330
1B
100
AcDbEntity
 67
     1
  8
0
100
AcDbBlockBegin
  2
*Paper_Space
 70
     0
 71
     0
 10
0.0
 20
0.0
 30
0.0
  3
*Paper_Space
  1

  0
ENDBLK
  5
1D
330
1B
100
AcDbEntity
 67
     1
  8
0
100
AcDbBlockEnd
  0
BLOCK
  5
24
330
23
100
AcDbEntity
  8
0
100
AcDbBlockBegin
  2
*Paper_Space0
 70
     0
 71
     0
 10
0.0
 20
0.0
 30
0.0
  3
*Paper_Space0
  1

  0
ENDBLK
  5
25
330
23
100
AcDbEntity
  8
0
100
AcDbBlockEnd
  0
BLOCK
  5
3E
330
3C
100
AcDbEntity
  8
0
100
AcDbBlockBegin
  2
block 2
 70
     0
 71
     0
 10
0.0
 20
0.0
 30
0.0
  3
block 2
  1

  0
POLYLINE
  5
40
330
3C
100
AcDbEntity
  8
Vrstva 1
370
     0
100
AcDb2dPolyline
 66
     1
 10
0.0
 20
0.0
 30
0.0
  0
VERTEX
  5
41
330
40
100
AcDbEntity
  8
Vrstva 1
370
     0
100
AcDbVertex
100
AcDb2dVertex
 10
161.7742114988134
 20
86.0378714073352
 30
0.0
  0
VERTEX
  5
42
330
40
100
AcDbEntity
  8
Vrstva 1
370
     0
100
AcDbVertex
100
AcDb2dVertex
 10
162.9100602296134
 20
86.0378714073352
 30
0.0
  0
VERTEX
  5
43
330
40
100
AcDbEntity
  8
Vrstva 1
370
     0
100
AcDbVertex
100
AcDb2dVertex
 10
162.9100602296134
 20
96.3166650779897
 30
0.0
  0
VERTEX
  5
44
330
40
100
AcDbEntity
  8
Vrstva 1
370
     0
100
AcDbVertex
100
AcDb2dVertex
 10
161.7742114988134
 20
96.3166650779897
 30
0.0
  0
VERTEX
  5
45
330
40
100
AcDbEntity
  8
Vrstva 1
370
     0
100
AcDbVertex
100
AcDb2dVertex
 10
161.7742114988134
 20
86.0378714073352
 30
0.0
  0
SEQEND
  5
46
330
40
100
AcDbEntity
  8
Vrstva 1
370
     0
  0
HATCH
  5
47
330
3C
100
AcDbEntity
  8
Vrstva 1
 62
   252
420
  8750471
100
AcDbHatch
 10
0.0
 20
0.0
 30
0.0
210
0.0
220
0.0
230
1.0
  2
SOLID
 70
     1
 71
     0
 91
        1
 92
        1
 93
        4
 72
     1
 10
161.7742114988134
 20
86.0378714073352
 11
162.9100602296134
 21
86.0378714073352
 72
     1
 10
162.9100602296134
 20
86.0378714073352
 11
162.9100602296134
 21
96.3166650779897
 72
     1
 10
162.9100602296134
 20
96.3166650779897
 11
161.7742114988134
 21
96.3166650779897
 72
     1
 10
161.7742114988134
 20
96.3166650779897
 11
161.7742114988134
 21
86.0378714073352
 97
        0
 75
     2
 76
     1
 98
        0
  0
POLYLINE
  5
48
330
3C
100
AcDbEntity
  8
Vrstva 1
370
     0
100
AcDb2dPolyline
 66
     1
 10
0.0
 20
0.0
 30
0.0
  0
VERTEX
  5
49
330
48
100
AcDbEntity
  8
Vrstva 1
370
     0
100
AcDbVertex
100
AcDb2dVertex
 10
163.8853674048923
 20
99.92058184259342
 30
0.0
  0
VERTEX
  5
4A
330
48
100
AcDbEntity
  8
Vrstva 1
370
     0
100
AcDbVertex
100
AcDb2dVertex
 10
160.6648900207497
 20
98.51601548667244
 30
0.0
  0
VERTEX
  5
4B
330
48
100
AcDbEntity
  8
Vrstva 1
370
     0
100
AcDbVertex
100
AcDb2dVertex
 10
161.0359270492822
 20
97.61684497184444
 30
0.0
  0
VERTEX
  5
4C
330
48
100
AcDbEntity
  8
Vrstva 1
370
     0
100
AcDbVertex
100
AcDb2dVertex
 10
164.2829316861611
 20
98.88705251520491
 30
0.0
  0
VERTEX
  5
4D
330
48
100
AcDbEntity
  8
Vrstva 1
370
     0
100
AcDbVertex
100
AcDb2dVertex
 10
163.8853674048923
 20
99.92058184259342
 30
0.0
  0
SEQEND
  5
4E
330
48
100
AcDbEntity
  8
Vrstva 1
370
     0
  0
HATCH
  5
4F
330
3C
100
AcDbEntity
  8
Vrstva 1
 62
   252
420
  8750471
100
AcDbHatch
 10
0.0
 20
0.0
 30
0.0
210
0.0
220
0.0
230
1.0
  2
SOLID
 70
     1
 71
     0
 91
        1
 92
        1
 93
        4
 72
     1
 10
163.8853674048923
 20
99.92058184259342
 11
160.6648900207497
 21
98.51601548667244
 72
     1
 10
160.6648900207497
 20
98.51601548667244
 11
161.0359270492822
 21
97.61684497184444
 72
     1
 10
161.0359270492822
 20
97.61684497184444
 11
164.2829316861611
 21
98.88705251520491
 72
     1
 10
164.2829316861611
 20
98.88705251520491
 11
163.8853674048923
 21
99.92058184259342
 97
        0
 75
     2
 76
     1
 98
        0
  0
POLYLINE
  5
50
330
3C
100
AcDbEntity
  8
Vrstva 1
370
     0
100
AcDb2dPolyline
 66
     1
 10
0.0
 20
0.0
 30
0.0
  0
VERTEX
  5
51
330
50
100
AcDbEntity
  8
Vrstva 1
370
     0
100
AcDbVertex
100
AcDb2dVertex
 10
158.0607406255065
 20
87.36836816146001
 30
0.0
  0
VERTEX
  5
52
330
50
100
AcDbEntity
  8
Vrstva 1
370
     0
100
AcDbVertex
100
AcDb2dVertex
 10
157.7355233971549
 20
87.36836816146001
 30
0.0
  0
VERTEX
  5
53
330
50
100
AcDbEntity
  8
Vrstva 1
370
     0
100
AcDbVertex
100
AcDb2dVertex
 10
153.6582502006072
 20
96.3166650779897
 30
0.0
  0
VERTEX
  5
54
330
50
100
AcDbEntity
  8
Vrstva 1
370
     0
100
AcDbVertex
100
AcDb2dVertex
 10
151.6211638963245
 20
96.3166650779897
 30
0.0
  0
VERTEX
  5
55
330
50
100
AcDbEntity
  8
Vrstva 1
370
     0
100
AcDbVertex
100
AcDb2dVertex
 10
151.6211638963245
 20
86.0378714073352
 30
0.0
  0
VERTEX
  5
56
330
50
100
AcDbEntity
  8
Vrstva 1
370
     0
100
AcDbVertex
100
AcDb2dVertex
 10
152.7570126271245
 20
86.0378714073352
 30
0.0
  0
VERTEX
  5
57
330
50
100
AcDbEntity
  8
Vrstva 1
370
     0
100
AcDbVertex
100
AcDb2dVertex
 10
152.7570126271245
 20
94.98823538251968
 30
0.0
  0
VERTEX
  5
58
330
50
100
AcDbEntity
  8
Vrstva 1
370
     0
100
AcDbVertex
100
AcDb2dVertex
 10
153.0681049546684
 20
94.98823538251968
 30
0.0
  0
VERTEX
  5
59
330
50
100
AcDbEntity
  8
Vrstva 1
370
     0
100
AcDbVertex
100
AcDb2dVertex
 10
157.2022222642224
 20
86.0378714073352
 30
0.0
  0
VERTEX
  5
5A
330
50
100
AcDbEntity
  8
Vrstva 1
370
     0
100
AcDbVertex
100
AcDb2dVertex
 10
159.1965893563064
 20
86.0378714073352
 30
0.0
  0
VERTEX
  5
5B
330
50
100
AcDbEntity
  8
Vrstva 1
370
     0
100
AcDbVertex
100
AcDb2dVertex
 10
159.1965893563064
 20
96.3166650779897
 30
0.0
  0
VERTEX
  5
5C
330
50
100
AcDbEntity
  8
Vrstva 1
370
     0
100
AcDbVertex
100
AcDb2dVertex
 10
158.0607406255065
 20
96.3166650779897
 30
0.0
  0
VERTEX
  5
5D
330
50
100
AcDbEntity
  8
Vrstva 1
370
     0
100
AcDbVertex
100
AcDb2dVertex
 10
158.0607406255065
 20
87.36836816146001
 30
0.0
  0
SEQEND
  5
5E
330
50
100
AcDbEntity
  8
Vrstva 1
370
     0
  0
HATCH
  5
5F
330
3C
100
AcDbEntity
  8
Vrstva 1
 62
   252
420
  8750471
100
AcDbHatch
 10
0.0
 20
0.0
 30
0.0
210
0.0
220
0.0
230
1.0
  2
SOLID
 70
     1
 71
     0
 91
        1
 92
        1
 93
       12
 72
     1
 10
158.0607406255065
 20
87.36836816146001
 11
157.7355233971549
 21
87.36836816146001
 72
     1
 10
157.7355233971549
 20
87.36836816146001
 11
153.6582502006072
 21
96.3166650779897
 72
     1
 10
153.6582502006072
 20
96.3166650779897
 11
151.6211638963245
 21
96.3166650779897
 72
     1
 10
151.6211638963245
 20
96.3166650779897
 11
151.6211638963245
 21
86.0378714073352
 72
     1
 10
151.6211638963245
 20
86.0378714073352
 11
152.7570126271245
 21
86.0378714073352
 72
     1
 10
152.7570126271245
 20
86.0378714073352
 11
152.7570126271245
 21
94.98823538251968
 72
     1
 10
152.7570126271245
 20
94.98823538251968
 11
153.0681049546684
 21
94.98823538251968
 72
     1
 10
153.0681049546684
 20
94.98823538251968
 11
157.2022222642224
 21
86.0378714073352
 72
     1
 10
157.2022222642224
 20
86.0378714073352
 11
159.1965893563064
 21
86.0378714073352
 72
     1
 10
159.1965893563064
 20
86.0378714073352
 11
159.1965893563064
 21
96.3166650779897
 72
     1
 10
159.1965893563064
 20
96.3166650779897
 11
158.0607406255065
 21
96.3166650779897
 72
     1
 10
158.0607406255065
 20
96.3166650779897
 11
158.0607406255065
 21
87.36836816146001
 97
        0
 75
     2
 76
     1
 98
        0
  0
POLYLINE
  5
60
330
3C
100
AcDbEntity
  8
Vrstva 1
370
     0
100
AcDb2dPolyline
 66
     1
 10
0.0
 20
0.0
 30
0.0
  0
VERTEX
  5
61
330
60
100
AcDbEntity
  8
Vrstva 1
370
     0
100
AcDbVertex
100
AcDb2dVertex
 10
146.3263931521132
 20
87.11584249580142
 30
0.0
  0
VERTEX
  5
62
330
60
100
AcDbEntity
  8
Vrstva 1
370
     0
100
AcDbVertex
100
AcDb2dVertex
 10
145.5457340001591
 20
87.11584249580142
 30
0.0
  0
VERTEX
  5
63
330
60
100
AcDbEntity
  8
Vrstva 1
370
     0
100
AcDbVertex
100
AcDb2dVertex
 10
143.1517355681515
 20
96.3166650779897
 30
0.0
  0
VERTEX
  5
64
330
60
100
AcDbEntity
  8
Vrstva 1
370
     0
100
AcDbVertex
100
AcDb2dVertex
 10
141.9697225273948
 20
96.3166650779897
 30
0.0
  0
VERTEX
  5
65
330
60
100
AcDbEntity
  8
Vrstva 1
370
     0
100
AcDbVertex
100
AcDb2dVertex
 10
144.6727462282915
 20
86.0378714073352
 30
0.0
  0
VERTEX
  5
66
330
60
100
AcDbEntity
  8
Vrstva 1
370
     0
100
AcDbVertex
100
AcDb2dVertex
 10
147.1990364142049
 20
86.0378714073352
 30
0.0
  0
VERTEX
  5
67
330
60
100
AcDbEntity
  8
Vrstva 1
370
     0
100
AcDbVertex
100
AcDb2dVertex
 10
149.8703652157284
 20
96.3166650779897
 30
0.0
  0
VERTEX
  5
68
330
60
100
AcDbEntity
  8
Vrstva 1
370
     0
100
AcDbVertex
100
AcDb2dVertex
 10
148.6904192336265
 20
96.3166650779897
 30
0.0
  0
VERTEX
  5
69
330
60
100
AcDbEntity
  8
Vrstva 1
370
     0
100
AcDbVertex
100
AcDb2dVertex
 10
146.3263931521132
 20
87.11584249580142
 30
0.0
  0
SEQEND
  5
6A
330
60
100
AcDbEntity
  8
Vrstva 1
370
     0
  0
HATCH
  5
6B
330
3C
100
AcDbEntity
  8
Vrstva 1
 62
   252
420
  8750471
100
AcDbHatch
 10
0.0
 20
0.0
 30
0.0
210
0.0
220
0.0
230
1.0
  2
SOLID
 70
     1
 71
     0
 91
        1
 92
        1
 93
        8
 72
     1
 10
146.3263931521132
 20
87.11584249580142
 11
145.5457340001591
 21
87.11584249580142
 72
     1
 10
145.5457340001591
 20
87.11584249580142
 11
143.1517355681515
 21
96.3166650779897
 72
     1
 10
143.1517355681515
 20
96.3166650779897
 11
141.9697225273948
 21
96.3166650779897
 72
     1
 10
141.9697225273948
 20
96.3166650779897
 11
144.6727462282915
 21
86.0378714073352
 72
     1
 10
144.6727462282915
 20
86.0378714073352
 11
147.1990364142049
 21
86.0378714073352
 72
     1
 10
147.1990364142049
 20
86.0378714073352
 11
149.8703652157284
 21
96.3166650779897
 72
     1
 10
149.8703652157284
 20
96.3166650779897
 11
148.6904192336265
 21
96.3166650779897
 72
     1
 10
148.6904192336265
 20
96.3166650779897
 11
146.3263931521132
 21
87.11584249580142
 97
        0
 75
     2
 76
     1
 98
        0
  0
POLYLINE
  5
6C
330
3C
100
AcDbEntity
  8
Vrstva 1
370
     0
100
AcDb2dPolyline
 66
     1
 10
0.0
 20
0.0
 30
0.0
  0
VERTEX
  5
6D
330
6C
100
AcDbEntity
  8
Vrstva 1
370
     0
100
AcDbVertex
100
AcDb2dVertex
 10
135.8643202807351
 20
96.3166650779897
 30
0.0
  0
VERTEX
  5
6E
330
6C
100
AcDbEntity
  8
Vrstva 1
370
     0
100
AcDbVertex
100
AcDb2dVertex
 10
133.0589771764269
 20
86.0378714073352
 30
0.0
  0
VERTEX
  5
6F
330
6C
100
AcDbEntity
  8
Vrstva 1
370
     0
100
AcDbVertex
100
AcDb2dVertex
 10
134.1948259072269
 20
86.0378714073352
 30
0.0
  0
VERTEX
  5
70
330
6C
100
AcDbEntity
  8
Vrstva 1
370
     0
100
AcDbVertex
100
AcDb2dVertex
 10
134.9334548665339
 20
88.62272825513386
 30
0.0
  0
VERTEX
  5
71
330
6C
100
AcDbEntity
  8
Vrstva 1
370
     0
100
AcDbVertex
100
AcDb2dVertex
 10
139.2174339285592
 20
88.62272825513386
 30
0.0
  0
VERTEX
  5
72
330
6C
100
AcDbEntity
  8
Vrstva 1
370
     0
100
AcDbVertex
100
AcDb2dVertex
 10
139.9984375902891
 20
86.05371885702183
 30
0.0
  0
VERTEX
  5
73
330
6C
100
AcDbEntity
  8
Vrstva 1
370
     0
100
AcDbVertex
100
AcDb2dVertex
 10
141.1218839691605
 20
86.05371885702183
 30
0.0
  0
VERTEX
  5
74
330
6C
100
AcDbEntity
  8
Vrstva 1
370
     0
100
AcDbVertex
100
AcDb2dVertex
 10
138.3589155672752
 20
96.3166650779897
 30
0.0
  0
VERTEX
  5
75
330
6C
100
AcDbEntity
  8
Vrstva 1
370
     0
100
AcDbVertex
100
AcDb2dVertex
 10
135.8643202807351
 20
96.3166650779897
 30
0.0
  0
SEQEND
  5
76
330
6C
100
AcDbEntity
  8
Vrstva 1
370
     0
  0
HATCH
  5
77
330
3C
100
AcDbEntity
  8
Vrstva 1
 62
   252
420
  8750471
100
AcDbHatch
 10
0.0
 20
0.0
 30
0.0
210
0.0
220
0.0
230
1.0
  2
SOLID
 70
     1
 71
     0
 91
        1
 92
        1
 93
        8
 72
     1
 10
135.8643202807351
 20
96.3166650779897
 11
133.0589771764269
 21
86.0378714073352
 72
     1
 10
133.0589771764269
 20
86.0378714073352
 11
134.1948259072269
 21
86.0378714073352
 72
     1
 10
134.1948259072269
 20
86.0378714073352
 11
134.9334548665339
 21
88.62272825513386
 72
     1
 10
134.9334548665339
 20
88.62272825513386
 11
139.2174339285592
 21
88.62272825513386
 72
     1
 10
139.2174339285592
 20
88.62272825513386
 11
139.9984375902891
 21
86.05371885702183
 72
     1
 10
139.9984375902891
 20
86.05371885702183
 11
141.1218839691605
 21
86.05371885702183
 72
     1
 10
141.1218839691605
 20
86.05371885702183
 11
138.3589155672752
 21
96.3166650779897
 72
     1
 10
138.3589155672752
 20
96.3166650779897
 11
135.8643202807351
 21
96.3166650779897
 97
        0
 75
     2
 76
     1
 98
        0
  0
SPLINE
  5
78
330
3C
100
AcDbEntity
  8
Vrstva 1
370
     0
100
AcDbSpline
210
0.0
220
0.0
230
1.0
 70
    11
 71
     3
 72
    35
 73
    31
 74
     0
 42
0.0000000001
 43
0.0000000001
 40
0.0
 40
0.0
 40
0.0
 40
0.0
 40
1.0
 40
1.0
 40
1.0
 40
2.0
 40
2.0
 40
2.0
 40
3.0
 40
3.0
 40
3.0
 40
4.0
 40
4.0
 40
4.0
 40
5.0
 40
5.0
 40
5.0
 40
6.0
 40
6.0
 40
6.0
 40
7.0
 40
7.0
 40
7.0
 40
8.0
 40
8.0
 40
8.0
 40
9.0
 40
9.0
 40
9.0
 40
10.0
 40
10.0
 40
10.0
 40
10.0
 10
131.7956598285824
 20
93.18610474532991
 30
0.0
 10
131.7956598285824
 20
95.40130260369928
 30
0.0
 10
130.7321581506996
 20
96.3166650779897
 30
0.0
 10
128.5328077420168
 20
96.3166650779897
 30
0.0
 10
128.5328077420168
 20
96.3166650779897
 30
0.0
 10
124.7521574624297
 20
96.3166650779897
 30
0.0
 10
124.7521574624297
 20
96.3166650779897
 30
0.0
 10
124.7521574624297
 20
96.3166650779897
 30
0.0
 10
124.7521574624297
 20
86.0378714073352
 30
0.0
 10
124.7521574624297
 20
86.0378714073352
 30
0.0
 10
124.7521574624297
 20
86.0378714073352
 30
0.0
 10
125.8880061932297
 20
86.0378714073352
 30
0.0
 10
125.8880061932297
 20
86.0378714073352
 30
0.0
 10
125.8880061932297
 20
86.0378714073352
 30
0.0
 10
125.8880061932297
 20
89.9229081489886
 30
0.0
 10
125.8880061932297
 20
89.9229081489886
 30
0.0
 10
125.8880061932297
 20
89.9229081489886
 30
0.0
 10
128.7836108587964
 20
89.9229081489886
 30
0.0
 10
128.7836108587964
 20
89.9229081489886
 30
0.0
 10
128.7836108587964
 20
89.9229081489886
 30
0.0
 10
130.6281161984091
 20
86.0378714073352
 30
0.0
 10
130.6281161984091
 20
86.0378714073352
 30
0.0
 10
130.6281161984091
 20
86.0378714073352
 30
0.0
 10
131.8838543311862
 20
86.0378714073352
 30
0.0
 10
131.8838543311862
 20
86.0378714073352
 30
0.0
 10
131.8838543311862
 20
86.0378714073352
 30
0.0
 10
129.9194595895964
 20
90.21643047796694
 30
0.0
 10
129.9194595895964
 20
90.21643047796694
 30
0.0
 10
131.2341088940346
 20
90.61537279833891
 30
0.0
 10
131.7956598285824
 20
91.6048048744255
 30
0.0
 10
131.7956598285824
 20
93.18610474532991
 30
0.0
  0
HATCH
  5
79
330
3C
100
AcDbEntity
  8
Vrstva 1
 62
   252
420
  8750471
100
AcDbHatch
 10
0.0
 20
0.0
 30
0.0
210
0.0
220
0.0
230
1.0
  2
SOLID
 70
     1
 71
     0
 91
        1
 92
        1
 93
        1
 72
     4
 94
        3
 73
     0
 74
     1
 95
       35
 96
       31
 40
0.0
 40
0.0
 40
0.0
 40
0.0
 40
1.0
 40
1.0
 40
1.0
 40
2.0
 40
2.0
 40
2.0
 40
3.0
 40
3.0
 40
3.0
 40
4.0
 40
4.0
 40
4.0
 40
5.0
 40
5.0
 40
5.0
 40
6.0
 40
6.0
 40
6.0
 40
7.0
 40
7.0
 40
7.0
 40
8.0
 40
8.0
 40
8.0
 40
9.0
 40
9.0
 40
9.0
 40
10.0
 40
10.0
 40
10.0
 40
10.0
 10
131.7956598285824
 20
93.18610474532991
 10
131.7956598285824
 20
95.40130260369928
 10
130.7321581506996
 20
96.3166650779897
 10
128.5328077420168
 20
96.3166650779897
 10
128.5328077420168
 20
96.3166650779897
 10
124.7521574624297
 20
96.3166650779897
 10
124.7521574624297
 20
96.3166650779897
 10
124.7521574624297
 20
96.3166650779897
 10
124.7521574624297
 20
86.0378714073352
 10
124.7521574624297
 20
86.0378714073352
 10
124.7521574624297
 20
86.0378714073352
 10
125.8880061932297
 20
86.0378714073352
 10
125.8880061932297
 20
86.0378714073352
 10
125.8880061932297
 20
86.0378714073352
 10
125.8880061932297
 20
89.9229081489886
 10
125.8880061932297
 20
89.9229081489886
 10
125.8880061932297
 20
89.9229081489886
 10
128.7836108587964
 20
89.9229081489886
 10
128.7836108587964
 20
89.9229081489886
 10
128.7836108587964
 20
89.9229081489886
 10
130.6281161984091
 20
86.0378714073352
 10
130.6281161984091
 20
86.0378714073352
 10
130.6281161984091
 20
86.0378714073352
 10
131.8838543311862
 20
86.0378714073352
 10
131.8838543311862
 20
86.0378714073352
 10
131.8838543311862
 20
86.0378714073352
 10
129.9194595895964
 20
90.21643047796694
 10
129.9194595895964
 20
90.21643047796694
 10
131.2341088940346
 20
90.61537279833891
 10
131.7956598285824
 20
91.6048048744255
 10
131.7956598285824
 20
93.18610474532991
 97
        0
 75
     2
 76
     1
 98
        0
  0
SPLINE
  5
7A
330
3C
100
AcDbEntity
  8
Vrstva 1
370
     0
100
AcDbSpline
210
0.0
220
0.0
230
1.0
 70
    11
 71
     3
 72
    26
 73
    22
 74
     0
 42
0.0000000001
 43
0.0000000001
 40
0.0
 40
0.0
 40
0.0
 40
0.0
 40
1.0
 40
1.0
 40
1.0
 40
2.0
 40
2.0
 40
2.0
 40
3.0
 40
3.0
 40
3.0
 40
4.0
 40
4.0
 40
4.0
 40
5.0
 40
5.0
 40
5.0
 40
6.0
 40
6.0
 40
6.0
 40
7.0
 40
7.0
 40
7.0
 40
7.0
 10
119.5455812208222
 20
96.3166650779897
 30
0.0
 10
119.5455812208222
 20
96.3166650779897
 30
0.0
 10
115.8093727023127
 20
96.3166650779897
 30
0.0
 10
115.8093727023127
 20
96.3166650779897
 30
0.0
 10
115.8093727023127
 20
96.3166650779897
 30
0.0
 10
115.8093727023127
 20
86.0378714073352
 30
0.0
 10
115.8093727023127
 20
86.0378714073352
 30
0.0
 10
115.8093727023127
 20
86.0378714073352
 30
0.0
 10
116.9469439819917
 20
86.0378714073352
 30
0.0
 10
116.9469439819917
 20
86.0378714073352
 30
0.0
 10
116.9469439819917
 20
86.0378714073352
 30
0.0
 10
116.9469439819917
 20
89.47780151865996
 30
0.0
 10
116.9469439819917
 20
89.47780151865996
 30
0.0
 10
116.9469439819917
 20
89.47780151865996
 30
0.0
 10
119.5455812208222
 20
89.47780151865996
 30
0.0
 10
119.5455812208222
 20
89.47780151865996
 30
0.0
 10
121.775248489775
 20
89.47780151865996
 30
0.0
 10
122.8087778171635
 20
90.79245082309814
 30
0.0
 10
122.8087778171635
 20
93.02349613115412
 30
0.0
 10
122.8087778171635
 20
95.25281889033113
 30
0.0
 10
121.775248489775
 20
96.3166650779897
 30
0.0
 10
119.5455812208222
 20
96.3166650779897
 30
0.0
  0
HATCH
  5
7B
330
3C
100
AcDbEntity
  8
Vrstva 1
 62
   252
420
  8750471
100
AcDbHatch
 10
0.0
 20
0.0
 30
0.0
210
0.0
220
0.0
230
1.0
  2
SOLID
 70
     1
 71
     0
 91
        1
 92
        1
 93
        1
 72
     4
 94
        3
 73
     0
 74
     1
 95
       26
 96
       22
 40
0.0
 40
0.0
 40
0.0
 40
0.0
 40
1.0
 40
1.0
 40
1.0
 40
2.0
 40
2.0
 40
2.0
 40
3.0
 40
3.0
 40
3.0
 40
4.0
 40
4.0
 40
4.0
 40
5.0
 40
5.0
 40
5.0
 40
6.0
 40
6.0
 40
6.0
 40
7.0
 40
7.0
 40
7.0
 40
7.0
 10
119.5455812208222
 20
96.3166650779897
 10
119.5455812208222
 20
96.3166650779897
 10
115.8093727023127
 20
96.3166650779897
 10
115.8093727023127
 20
96.3166650779897
 10
115.8093727023127
 20
96.3166650779897
 10
115.8093727023127
 20
86.0378714073352
 10
115.8093727023127
 20
86.0378714073352
 10
115.8093727023127
 20
86.0378714073352
 10
116.9469439819917
 20
86.0378714073352
 10
116.9469439819917
 20
86.0378714073352
 10
116.9469439819917
 20
86.0378714073352
 10
116.9469439819917
 20
89.47780151865996
 10
116.9469439819917
 20
89.47780151865996
 10
116.9469439819917
 20
89.47780151865996
 10
119.5455812208222
 20
89.47780151865996
 10
119.5455812208222
 20
89.47780151865996
 10
121.775248489775
 20
89.47780151865996
 10
122.8087778171635
 20
90.79245082309814
 10
122.8087778171635
 20
93.02349613115412
 10
122.8087778171635
 20
95.25281889033113
 10
121.775248489775
 20
96.3166650779897
 10
119.5455812208222
 20
96.3166650779897
 97
        0
 75
     2
 76
     1
 98
        0
  0
SPLINE
  5
7C
330
3C
100
AcDbEntity
  8
Vrstva 1
370
     0
100
AcDbSpline
210
0.0
220
0.0
230
1.0
 70
    11
 71
     3
 72
    17
 73
    13
 74
     0
 42
0.0000000001
 43
0.0000000001
 40
0.0
 40
0.0
 40
0.0
 40
0.0
 40
1.0
 40
1.0
 40
1.0
 40
2.0
 40
2.0
 40
2.0
 40
3.0
 40
3.0
 40
3.0
 40
4.0
 40
4.0
 40
4.0
 40
4.0
 10
109.6895010450696
 20
96.46308173270307
 30
0.0
 10
106.5269013032608
 20
96.46308173270307
 30
0.0
 10
105.6422001990162
 20
94.51625698967892
 30
0.0
 10
105.6422001990162
 20
91.11697903189813
 30
0.0
 10
105.6422001990162
 20
87.69151833115681
 30
0.0
 10
106.4986515016455
 20
85.89145475262184
 30
0.0
 10
109.6895010450696
 20
85.89145475262184
 30
0.0
 10
112.8483111793447
 20
85.89145475262184
 30
0.0
 10
113.7209544414364
 20
87.603323828553
 30
0.0
 10
113.7209544414364
 20
91.11697903189813
 30
0.0
 10
113.7209544414364
 20
94.53038189048657
 30
0.0
 10
112.8483111793447
 20
96.46308173270307
 30
0.0
 10
109.6895010450696
 20
96.46308173270307
 30
0.0
  0
HATCH
  5
7D
330
3C
100
AcDbEntity
  8
Vrstva 1
 62
   252
420
  8750471
100
AcDbHatch
 10
0.0
 20
0.0
 30
0.0
210
0.0
220
0.0
230
1.0
  2
SOLID
 70
     1
 71
     0
 91
        1
 92
        1
 93
        1
 72
     4
 94
        3
 73
     0
 74
     1
 95
       17
 96
       13
 40
0.0
 40
0.0
 40
0.0
 40
0.0
 40
1.0
 40
1.0
 40
1.0
 40
2.0
 40
2.0
 40
2.0
 40
3.0
 40
3.0
 40
3.0
 40
4.0
 40
4.0
 40
4.0
 40
4.0
 10
109.6895010450696
 20
96.46308173270307
 10
106.5269013032608
 20
96.46308173270307
 10
105.6422001990162
 20
94.51625698967892
 10
105.6422001990162
 20
91.11697903189813
 10
105.6422001990162
 20
87.69151833115681
 10
106.4986515016455
 20
85.89145475262184
 10
109.6895010450696
 20
85.89145475262184
 10
112.8483111793447
 20
85.89145475262184
 10
113.7209544414364
 20
87.603323828553
 10
113.7209544414364
 20
91.11697903189813
 10
113.7209544414364
 20
94.53038189048657
 10
112.8483111793447
 20
96.46308173270307
 10
109.6895010450696
 20
96.46308173270307
 97
        0
 75
     2
 76
     1
 98
        0
  0
SPLINE
  5
7E
330
3C
100
AcDbEntity
  8
Vrstva 1
370
     0
100
AcDbSpline
210
0.0
220
0.0
230
1.0
 70
    11
 71
     3
 72
    20
 73
    16
 74
     0
 42
0.0000000001
 43
0.0000000001
 40
0.0
 40
0.0
 40
0.0
 40
0.0
 40
1.0
 40
1.0
 40
1.0
 40
2.0
 40
2.0
 40
2.0
 40
3.0
 40
3.0
 40
3.0
 40
4.0
 40
4.0
 40
4.0
 40
5.0
 40
5.0
 40
5.0
 40
5.0
 10
100.3770572955233
 20
96.3166650779897
 30
0.0
 10
100.3770572955233
 20
96.3166650779897
 30
0.0
 10
96.7300768089451
 20
96.3166650779897
 30
0.0
 10
96.7300768089451
 20
96.3166650779897
 30
0.0
 10
96.7300768089451
 20
96.3166650779897
 30
0.0
 10
96.7300768089451
 20
86.0378714073352
 30
0.0
 10
96.7300768089451
 20
86.0378714073352
 30
0.0
 10
96.7300768089451
 20
86.0378714073352
 30
0.0
 10
100.3770572955233
 20
86.0378714073352
 30
0.0
 10
100.3770572955233
 20
86.0378714073352
 30
0.0
 10
103.3753258742774
 20
86.0378714073352
 30
0.0
 10
104.1577075751105
 20
88.39983043019375
 30
0.0
 10
104.1577075751105
 20
91.33987685683825
 30
0.0
 10
104.1577075751105
 20
94.24960642321268
 30
0.0
 10
103.3312286229755
 20
96.3166650779897
 30
0.0
 10
100.3770572955233
 20
96.3166650779897
 30
0.0
  0
HATCH
  5
7F
330
3C
100
AcDbEntity
  8
Vrstva 1
 62
   252
420
  8750471
100
AcDbHatch
 10
0.0
 20
0.0
 30
0.0
210
0.0
220
0.0
230
1.0
  2
SOLID
 70
     1
 71
     0
 91
        1
 92
        1
 93
        1
 72
     4
 94
        3
 73
     0
 74
     1
 95
       20
 96
       16
 40
0.0
 40
0.0
 40
0.0
 40
0.0
 40
1.0
 40
1.0
 40
1.0
 40
2.0
 40
2.0
 40
2.0
 40
3.0
 40
3.0
 40
3.0
 40
4.0
 40
4.0
 40
4.0
 40
5.0
 40
5.0
 40
5.0
 40
5.0
 10
100.3770572955233
 20
96.3166650779897
 10
100.3770572955233
 20
96.3166650779897
 10
96.7300768089451
 20
96.3166650779897
 10
96.7300768089451
 20
96.3166650779897
 10
96.7300768089451
 20
96.3166650779897
 10
96.7300768089451
 20
86.0378714073352
 10
96.7300768089451
 20
86.0378714073352
 10
96.7300768089451
 20
86.0378714073352
 10
100.3770572955233
 20
86.0378714073352
 10
100.3770572955233
 20
86.0378714073352
 10
103.3753258742774
 20
86.0378714073352
 10
104.1577075751105
 20
88.39983043019375
 10
104.1577075751105
 20
91.33987685683825
 10
104.1577075751105
 20
94.24960642321268
 10
103.3312286229755
 20
96.3166650779897
 10
100.3770572955233
 20
96.3166650779897
 97
        0
 75
     2
 76
     1
 98
        0
  0
POLYLINE
  5
80
330
3C
100
AcDbEntity
  8
Vrstva 1
370
     0
100
AcDb2dPolyline
 66
     1
 10
0.0
 20
0.0
 30
0.0
  0
VERTEX
  5
81
330
80
100
AcDbEntity
  8
Vrstva 1
370
     0
100
AcDbVertex
100
AcDb2dVertex
 10
163.3431090177891
 20
104.8229559521729
 30
0.0
  0
VERTEX
  5
82
330
80
100
AcDbEntity
  8
Vrstva 1
370
     0
100
AcDbVertex
100
AcDb2dVertex
 10
158.2619343345714
 20
104.8229559521729
 30
0.0
  0
VERTEX
  5
83
330
80
100
AcDbEntity
  8
Vrstva 1
370
     0
100
AcDbVertex
100
AcDb2dVertex
 10
158.2619343345714
 20
108.4120587964174
 30
0.0
  0
VERTEX
  5
84
330
80
100
AcDbEntity
  8
Vrstva 1
370
     0
100
AcDbVertex
100
AcDb2dVertex
 10
162.4563408548898
 20
108.4120587964174
 30
0.0
  0
VERTEX
  5
85
330
80
100
AcDbEntity
  8
Vrstva 1
370
     0
100
AcDbVertex
100
AcDb2dVertex
 10
162.4563408548898
 20
109.4755604743002
 30
0.0
  0
VERTEX
  5
86
330
80
100
AcDbEntity
  8
Vrstva 1
370
     0
100
AcDbVertex
100
AcDb2dVertex
 10
158.2619343345714
 20
109.4755604743002
 30
0.0
  0
VERTEX
  5
87
330
80
100
AcDbEntity
  8
Vrstva 1
370
     0
100
AcDbVertex
100
AcDb2dVertex
 10
158.2619343345714
 20
112.9461519556708
 30
0.0
  0
VERTEX
  5
88
330
80
100
AcDbEntity
  8
Vrstva 1
370
     0
100
AcDbVertex
100
AcDb2dVertex
 10
163.3431090177891
 20
112.9461519556708
 30
0.0
  0
VERTEX
  5
89
330
80
100
AcDbEntity
  8
Vrstva 1
370
     0
100
AcDbVertex
100
AcDb2dVertex
 10
163.3431090177891
 20
114.0237785343612
 30
0.0
  0
VERTEX
  5
8A
330
80
100
AcDbEntity
  8
Vrstva 1
370
     0
100
AcDbVertex
100
AcDb2dVertex
 10
157.1402105045791
 20
114.0237785343612
 30
0.0
  0
VERTEX
  5
8B
330
80
100
AcDbEntity
  8
Vrstva 1
370
     0
100
AcDbVertex
100
AcDb2dVertex
 10
157.1402105045791
 20
103.7453293734825
 30
0.0
  0
VERTEX
  5
8C
330
80
100
AcDbEntity
  8
Vrstva 1
370
     0
100
AcDbVertex
100
AcDb2dVertex
 10
163.3431090177891
 20
103.7453293734825
 30
0.0
  0
VERTEX
  5
8D
330
80
100
AcDbEntity
  8
Vrstva 1
370
     0
100
AcDbVertex
100
AcDb2dVertex
 10
163.3431090177891
 20
104.8229559521729
 30
0.0
  0
SEQEND
  5
8E
330
80
100
AcDbEntity
  8
Vrstva 1
370
     0
  0
HATCH
  5
8F
330
3C
100
AcDbEntity
  8
Vrstva 1
 62
   252
420
  8750471
100
AcDbHatch
 10
0.0
 20
0.0
 30
0.0
210
0.0
220
0.0
230
1.0
  2
SOLID
 70
     1
 71
     0
 91
        1
 92
        1
 93
       12
 72
     1
 10
163.3431090177891
 20
104.8229559521729
 11
158.2619343345714
 21
104.8229559521729
 72
     1
 10
158.2619343345714
 20
104.8229559521729
 11
158.2619343345714
 21
108.4120587964174
 72
     1
 10
158.2619343345714
 20
108.4120587964174
 11
162.4563408548898
 21
108.4120587964174
 72
     1
 10
162.4563408548898
 20
108.4120587964174
 11
162.4563408548898
 21
109.4755604743002
 72
     1
 10
162.4563408548898
 20
109.4755604743002
 11
158.2619343345714
 21
109.4755604743002
 72
     1
 10
158.2619343345714
 20
109.4755604743002
 11
158.2619343345714
 21
112.9461519556708
 72
     1
 10
158.2619343345714
 20
112.9461519556708
 11
163.3431090177891
 21
112.9461519556708
 72
     1
 10
163.3431090177891
 20
112.9461519556708
 11
163.3431090177891
 21
114.0237785343612
 72
     1
 10
163.3431090177891
 20
114.0237785343612
 11
157.1402105045791
 21
114.0237785343612
 72
     1
 10
157.1402105045791
 20
114.0237785343612
 11
157.1402105045791
 21
103.7453293734825
 72
     1
 10
157.1402105045791
 20
103.7453293734825
 11
163.3431090177891
 21
103.7453293734825
 72
     1
 10
163.3431090177891
 20
103.7453293734825
 11
163.3431090177891
 21
104.8229559521729
 97
        0
 75
     2
 76
     1
 98
        0
  0
SPLINE
  5
90
330
3C
100
AcDbEntity
  8
Vrstva 1
370
     0
100
AcDbSpline
210
0.0
220
0.0
230
1.0
 70
    11
 71
     3
 72
    35
 73
    31
 74
     0
 42
0.0000000001
 43
0.0000000001
 40
0.0
 40
0.0
 40
0.0
 40
0.0
 40
1.0
 40
1.0
 40
1.0
 40
2.0
 40
2.0
 40
2.0
 40
3.0
 40
3.0
 40
3.0
 40
4.0
 40
4.0
 40
4.0
 40
5.0
 40
5.0
 40
5.0
 40
6.0
 40
6.0
 40
6.0
 40
7.0
 40
7.0
 40
7.0
 40
8.0
 40
8.0
 40
8.0
 40
9.0
 40
9.0
 40
9.0
 40
10.0
 40
10.0
 40
10.0
 40
10.0
 10
151.948103673555
 20
103.5978791894417
 30
0.0
 10
153.1139247548493
 20
103.5978791894417
 30
0.0
 10
154.7534467778632
 20
103.9370490637131
 30
0.0
 10
154.7534467778632
 20
103.9370490637131
 30
0.0
 10
154.7534467778632
 20
103.9370490637131
 30
0.0
 10
154.7110720754403
 20
104.9714396655411
 30
0.0
 10
154.7110720754403
 20
104.9714396655411
 30
0.0
 10
154.7110720754403
 20
104.9714396655411
 30
0.0
 10
153.0116053514378
 20
104.7054781186264
 30
0.0
 10
152.0962428771474
 20
104.7054781186264
 30
0.0
 10
149.76287816568
 20
104.7054781186264
 30
0.0
 10
149.379094275443
 20
106.0790385947257
 30
0.0
 10
149.379094275443
 20
108.8554428778671
 30
0.0
 10
149.379094275443
 20
111.6909305875574
 30
0.0
 10
149.7787256153666
 20
113.0644910636568
 30
0.0
 10
152.0662705266531
 20
113.0644910636568
 30
0.0
 10
153.0997998540416
 20
113.0644910636568
 30
0.0
 10
154.7110720754403
 20
112.8128266724377
 30
0.0
 10
154.7110720754403
 20
112.8128266724377
 30
0.0
 10
154.7110720754403
 20
112.8128266724377
 30
0.0
 10
154.7696387373257
 20
113.8320588441306
 30
0.0
 10
154.7696387373257
 20
113.8320588441306
 30
0.0
 10
154.7696387373257
 20
113.8320588441306
 30
0.0
 10
153.2923808187117
 20
114.1714009732898
 30
0.0
 10
151.948103673555
 20
114.1714009732898
 30
0.0
 10
148.9360547037691
 20
114.1714009732898
 30
0.0
 10
148.2132731941488
 20
112.3260343592377
 30
0.0
 10
148.2132731941488
 20
108.8554428778671
 30
0.0
 10
148.2132731941488
 20
105.4730458991003
 30
0.0
 10
148.8916129426914
 20
103.5978791894417
 30
0.0
 10
151.948103673555
 20
103.5978791894417
 30
0.0
  0
HATCH
  5
91
330
3C
100
AcDbEntity
  8
Vrstva 1
 62
   252
420
  8750471
100
AcDbHatch
 10
0.0
 20
0.0
 30
0.0
210
0.0
220
0.0
230
1.0
  2
SOLID
 70
     1
 71
     0
 91
        1
 92
        1
 93
        1
 72
     4
 94
        3
 73
     0
 74
     1
 95
       35
 96
       31
 40
0.0
 40
0.0
 40
0.0
 40
0.0
 40
1.0
 40
1.0
 40
1.0
 40
2.0
 40
2.0
 40
2.0
 40
3.0
 40
3.0
 40
3.0
 40
4.0
 40
4.0
 40
4.0
 40
5.0
 40
5.0
 40
5.0
 40
6.0
 40
6.0
 40
6.0
 40
7.0
 40
7.0
 40
7.0
 40
8.0
 40
8.0
 40
8.0
 40
9.0
 40
9.0
 40
9.0
 40
10.0
 40
10.0
 40
10.0
 40
10.0
 10
151.948103673555
 20
103.5978791894417
 10
153.1139247548493
 20
103.5978791894417
 10
154.7534467778632
 20
103.9370490637131
 10
154.7534467778632
 20
103.9370490637131
 10
154.7534467778632
 20
103.9370490637131
 10
154.7110720754403
 20
104.9714396655411
 10
154.7110720754403
 20
104.9714396655411
 10
154.7110720754403
 20
104.9714396655411
 10
153.0116053514378
 20
104.7054781186264
 10
152.0962428771474
 20
104.7054781186264
 10
149.76287816568
 20
104.7054781186264
 10
149.379094275443
 20
106.0790385947257
 10
149.379094275443
 20
108.8554428778671
 10
149.379094275443
 20
111.6909305875574
 10
149.7787256153666
 20
113.0644910636568
 10
152.0662705266531
 20
113.0644910636568
 10
153.0997998540416
 20
113.0644910636568
 10
154.7110720754403
 20
112.8128266724377
 10
154.7110720754403
 20
112.8128266724377
 10
154.7110720754403
 20
112.8128266724377
 10
154.7696387373257
 20
113.8320588441306
 10
154.7696387373257
 20
113.8320588441306
 10
154.7696387373257
 20
113.8320588441306
 10
153.2923808187117
 20
114.1714009732898
 10
151.948103673555
 20
114.1714009732898
 10
148.9360547037691
 20
114.1714009732898
 10
148.2132731941488
 20
112.3260343592377
 10
148.2132731941488
 20
108.8554428778671
 10
148.2132731941488
 20
105.4730458991003
 10
148.8916129426914
 20
103.5978791894417
 10
151.948103673555
 20
103.5978791894417
 97
        0
 75
     2
 76
     1
 98
        0
  0
POLYLINE
  5
92
330
3C
100
AcDbEntity
  8
Vrstva 1
370
     0
100
AcDb2dPolyline
 66
     1
 10
0.0
 20
0.0
 30
0.0
  0
VERTEX
  5
93
330
92
100
AcDbEntity
  8
Vrstva 1
370
     0
100
AcDbVertex
100
AcDb2dVertex
 10
140.7033045915681
 20
108.2051806760518
 30
0.0
  0
VERTEX
  5
94
330
92
100
AcDbEntity
  8
Vrstva 1
370
     0
100
AcDbVertex
100
AcDb2dVertex
 10
142.4010487666916
 20
108.2644363574887
 30
0.0
  0
VERTEX
  5
95
330
92
100
AcDbEntity
  8
Vrstva 1
370
     0
100
AcDbVertex
100
AcDb2dVertex
 10
145.1178528586202
 20
103.7453293734825
 30
0.0
  0
VERTEX
  5
96
330
92
100
AcDbEntity
  8
Vrstva 1
370
     0
100
AcDbVertex
100
AcDb2dVertex
 10
146.4624745135526
 20
103.7453293734825
 30
0.0
  0
VERTEX
  5
97
330
92
100
AcDbEntity
  8
Vrstva 1
370
     0
100
AcDbVertex
100
AcDb2dVertex
 10
143.3763559419706
 20
108.8845539539218
 30
0.0
  0
VERTEX
  5
98
330
92
100
AcDbEntity
  8
Vrstva 1
370
     0
100
AcDbVertex
100
AcDb2dVertex
 10
146.2998658993769
 20
114.0237785343612
 30
0.0
  0
VERTEX
  5
99
330
92
100
AcDbEntity
  8
Vrstva 1
370
     0
100
AcDbVertex
100
AcDb2dVertex
 10
144.9855611047145
 20
114.0237785343612
 30
0.0
  0
VERTEX
  5
9A
330
92
100
AcDbEntity
  8
Vrstva 1
370
     0
100
AcDbVertex
100
AcDb2dVertex
 10
142.3727989650763
 20
109.342235191067
 30
0.0
  0
VERTEX
  5
9B
330
92
100
AcDbEntity
  8
Vrstva 1
370
     0
100
AcDbVertex
100
AcDb2dVertex
 10
140.7033045915681
 20
109.2838407840696
 30
0.0
  0
VERTEX
  5
9C
330
92
100
AcDbEntity
  8
Vrstva 1
370
     0
100
AcDbVertex
100
AcDb2dVertex
 10
140.7033045915681
 20
114.0237785343612
 30
0.0
  0
VERTEX
  5
9D
330
92
100
AcDbEntity
  8
Vrstva 1
370
     0
100
AcDbVertex
100
AcDb2dVertex
 10
139.5671113509923
 20
114.0237785343612
 30
0.0
  0
VERTEX
  5
9E
330
92
100
AcDbEntity
  8
Vrstva 1
370
     0
100
AcDbVertex
100
AcDb2dVertex
 10
139.5671113509923
 20
103.7453293734825
 30
0.0
  0
VERTEX
  5
9F
330
92
100
AcDbEntity
  8
Vrstva 1
370
     0
100
AcDbVertex
100
AcDb2dVertex
 10
140.7033045915681
 20
103.7453293734825
 30
0.0
  0
VERTEX
  5
A0
330
92
100
AcDbEntity
  8
Vrstva 1
370
     0
100
AcDbVertex
100
AcDb2dVertex
 10
140.7033045915681
 20
108.2051806760518
 30
0.0
  0
SEQEND
  5
A1
330
92
100
AcDbEntity
  8
Vrstva 1
370
     0
  0
HATCH
  5
A2
330
3C
100
AcDbEntity
  8
Vrstva 1
 62
   252
420
  8750471
100
AcDbHatch
 10
0.0
 20
0.0
 30
0.0
210
0.0
220
0.0
230
1.0
  2
SOLID
 70
     1
 71
     0
 91
        1
 92
        1
 93
       13
 72
     1
 10
140.7033045915681
 20
108.2051806760518
 11
142.4010487666916
 21
108.2644363574887
 72
     1
 10
142.4010487666916
 20
108.2644363574887
 11
145.1178528586202
 21
103.7453293734825
 72
     1
 10
145.1178528586202
 20
103.7453293734825
 11
146.4624745135526
 21
103.7453293734825
 72
     1
 10
146.4624745135526
 20
103.7453293734825
 11
143.3763559419706
 21
108.8845539539218
 72
     1
 10
143.3763559419706
 20
108.8845539539218
 11
146.2998658993769
 21
114.0237785343612
 72
     1
 10
146.2998658993769
 20
114.0237785343612
 11
144.9855611047145
 21
114.0237785343612
 72
     1
 10
144.9855611047145
 20
114.0237785343612
 11
142.3727989650763
 21
109.342235191067
 72
     1
 10
142.3727989650763
 20
109.342235191067
 11
140.7033045915681
 21
109.2838407840696
 72
     1
 10
140.7033045915681
 20
109.2838407840696
 11
140.7033045915681
 21
114.0237785343612
 72
     1
 10
140.7033045915681
 20
114.0237785343612
 11
139.5671113509923
 21
114.0237785343612
 72
     1
 10
139.5671113509923
 20
114.0237785343612
 11
139.5671113509923
 21
103.7453293734825
 72
     1
 10
139.5671113509923
 20
103.7453293734825
 11
140.7033045915681
 21
103.7453293734825
 72
     1
 10
140.7033045915681
 20
103.7453293734825
 11
140.7033045915681
 21
108.2051806760518
 97
        0
 75
     2
 76
     1
 98
        0
  0
POLYLINE
  5
A3
330
3C
100
AcDbEntity
  8
Vrstva 1
370
     0
100
AcDb2dPolyline
 66
     1
 10
0.0
 20
0.0
 30
0.0
  0
VERTEX
  5
A4
330
A3
100
AcDbEntity
  8
Vrstva 1
370
     0
100
AcDbVertex
100
AcDb2dVertex
 10
137.0039586190688
 20
104.8229559521729
 30
0.0
  0
VERTEX
  5
A5
330
A3
100
AcDbEntity
  8
Vrstva 1
370
     0
100
AcDbVertex
100
AcDb2dVertex
 10
131.9227839358511
 20
104.8229559521729
 30
0.0
  0
VERTEX
  5
A6
330
A3
100
AcDbEntity
  8
Vrstva 1
370
     0
100
AcDbVertex
100
AcDb2dVertex
 10
131.9227839358511
 20
108.4120587964174
 30
0.0
  0
VERTEX
  5
A7
330
A3
100
AcDbEntity
  8
Vrstva 1
370
     0
100
AcDbVertex
100
AcDb2dVertex
 10
136.1171904561695
 20
108.4120587964174
 30
0.0
  0
VERTEX
  5
A8
330
A3
100
AcDbEntity
  8
Vrstva 1
370
     0
100
AcDbVertex
100
AcDb2dVertex
 10
136.1171904561695
 20
109.4755604743002
 30
0.0
  0
VERTEX
  5
A9
330
A3
100
AcDbEntity
  8
Vrstva 1
370
     0
100
AcDbVertex
100
AcDb2dVertex
 10
131.9227839358511
 20
109.4755604743002
 30
0.0
  0
VERTEX
  5
AA
330
A3
100
AcDbEntity
  8
Vrstva 1
370
     0
100
AcDbVertex
100
AcDb2dVertex
 10
131.9227839358511
 20
112.9461519556708
 30
0.0
  0
VERTEX
  5
AB
330
A3
100
AcDbEntity
  8
Vrstva 1
370
     0
100
AcDbVertex
100
AcDb2dVertex
 10
137.0039586190688
 20
112.9461519556708
 30
0.0
  0
VERTEX
  5
AC
330
A3
100
AcDbEntity
  8
Vrstva 1
370
     0
100
AcDbVertex
100
AcDb2dVertex
 10
137.0039586190688
 20
114.0237785343612
 30
0.0
  0
VERTEX
  5
AD
330
A3
100
AcDbEntity
  8
Vrstva 1
370
     0
100
AcDbVertex
100
AcDb2dVertex
 10
130.8010601058588
 20
114.0237785343612
 30
0.0
  0
VERTEX
  5
AE
330
A3
100
AcDbEntity
  8
Vrstva 1
370
     0
100
AcDbVertex
100
AcDb2dVertex
 10
130.8010601058588
 20
103.7453293734825
 30
0.0
  0
VERTEX
  5
AF
330
A3
100
AcDbEntity
  8
Vrstva 1
370
     0
100
AcDbVertex
100
AcDb2dVertex
 10
137.0039586190688
 20
103.7453293734825
 30
0.0
  0
VERTEX
  5
B0
330
A3
100
AcDbEntity
  8
Vrstva 1
370
     0
100
AcDbVertex
100
AcDb2dVertex
 10
137.0039586190688
 20
104.8229559521729
 30
0.0
  0
SEQEND
  5
B1
330
A3
100
AcDbEntity
  8
Vrstva 1
370
     0
  0
HATCH
  5
B2
330
3C
100
AcDbEntity
  8
Vrstva 1
 62
   252
420
  8750471
100
AcDbHatch
 10
0.0
 20
0.0
 30
0.0
210
0.0
220
0.0
230
1.0
  2
SOLID
 70
     1
 71
     0
 91
        1
 92
        1
 93
       12
 72
     1
 10
137.0039586190688
 20
104.8229559521729
 11
131.9227839358511
 21
104.8229559521729
 72
     1
 10
131.9227839358511
 20
104.8229559521729
 11
131.9227839358511
 21
108.4120587964174
 72
     1
 10
131.9227839358511
 20
108.4120587964174
 11
136.1171904561695
 21
108.4120587964174
 72
     1
 10
136.1171904561695
 20
108.4120587964174
 11
136.1171904561695
 21
109.4755604743002
 72
     1
 10
136.1171904561695
 20
109.4755604743002
 11
131.9227839358511
 21
109.4755604743002
 72
     1
 10
131.9227839358511
 20
109.4755604743002
 11
131.9227839358511
 21
112.9461519556708
 72
     1
 10
131.9227839358511
 20
112.9461519556708
 11
137.0039586190688
 21
112.9461519556708
 72
     1
 10
137.0039586190688
 20
112.9461519556708
 11
137.0039586190688
 21
114.0237785343612
 72
     1
 10
137.0039586190688
 20
114.0237785343612
 11
130.8010601058588
 21
114.0237785343612
 72
     1
 10
130.8010601058588
 20
114.0237785343612
 11
130.8010601058588
 21
103.7453293734825
 72
     1
 10
130.8010601058588
 20
103.7453293734825
 11
137.0039586190688
 21
103.7453293734825
 72
     1
 10
137.0039586190688
 20
103.7453293734825
 11
137.0039586190688
 21
104.8229559521729
 97
        0
 75
     2
 76
     1
 98
        0
  0
SPLINE
  5
B3
330
3C
100
AcDbEntity
  8
Vrstva 1
370
     0
100
AcDbSpline
210
0.0
220
0.0
230
1.0
 70
    11
 71
     3
 72
    23
 73
    19
 74
     0
 42
0.0000000001
 43
0.0000000001
 40
0.0
 40
0.0
 40
0.0
 40
0.0
 40
1.0
 40
1.0
 40
1.0
 40
2.0
 40
2.0
 40
2.0
 40
3.0
 40
3.0
 40
3.0
 40
4.0
 40
4.0
 40
4.0
 40
5.0
 40
5.0
 40
5.0
 40
6.0
 40
6.0
 40
6.0
 40
6.0
 10
127.7766087841442
 20
105.3547067911143
 30
0.0
 10
127.7766087841442
 20
108.5154117291562
 30
0.0
 10
127.7624838833366
 20
110.9083766318364
 30
0.0
 10
127.7624838833366
 20
114.0389369644962
 30
0.0
 10
127.7624838833366
 20
114.0389369644962
 30
0.0
 10
126.6404155435685
 20
114.0389369644962
 30
0.0
 10
126.6404155435685
 20
114.0389369644962
 30
0.0
 10
126.6404155435685
 20
114.0389369644962
 30
0.0
 10
126.6404155435685
 20
105.4882043292353
 30
0.0
 10
126.6404155435685
 20
105.4882043292353
 30
0.0
 10
126.6404155435685
 20
103.8486823062213
 30
0.0
 10
126.2855704744984
 20
103.7453293734825
 30
0.0
 10
124.9709211700603
 20
103.7453293734825
 30
0.0
 10
124.9709211700603
 20
103.7453293734825
 30
0.0
 10
124.9709211700603
 20
102.6818276955997
 30
0.0
 10
124.9709211700603
 20
102.6818276955997
 30
0.0
 10
126.9211910108424
 20
102.6818276955997
 30
0.0
 10
127.7766087841442
 20
102.9035197363246
 30
0.0
 10
127.7766087841442
 20
105.3547067911143
 30
0.0
  0
HATCH
  5
B4
330
3C
100
AcDbEntity
  8
Vrstva 1
 62
   252
420
  8750471
100
AcDbHatch
 10
0.0
 20
0.0
 30
0.0
210
0.0
220
0.0
230
1.0
  2
SOLID
 70
     1
 71
     0
 91
        1
 92
        1
 93
        1
 72
     4
 94
        3
 73
     0
 74
     1
 95
       23
 96
       19
 40
0.0
 40
0.0
 40
0.0
 40
0.0
 40
1.0
 40
1.0
 40
1.0
 40
2.0
 40
2.0
 40
2.0
 40
3.0
 40
3.0
 40
3.0
 40
4.0
 40
4.0
 40
4.0
 40
5.0
 40
5.0
 40
5.0
 40
6.0
 40
6.0
 40
6.0
 40
6.0
 10
127.7766087841442
 20
105.3547067911143
 10
127.7766087841442
 20
108.5154117291562
 10
127.7624838833366
 20
110.9083766318364
 10
127.7624838833366
 20
114.0389369644962
 10
127.7624838833366
 20
114.0389369644962
 10
126.6404155435685
 20
114.0389369644962
 10
126.6404155435685
 20
114.0389369644962
 10
126.6404155435685
 20
114.0389369644962
 10
126.6404155435685
 20
105.4882043292353
 10
126.6404155435685
 20
105.4882043292353
 10
126.6404155435685
 20
103.8486823062213
 10
126.2855704744984
 20
103.7453293734825
 10
124.9709211700603
 20
103.7453293734825
 10
124.9709211700603
 20
103.7453293734825
 10
124.9709211700603
 20
102.6818276955997
 10
124.9709211700603
 20
102.6818276955997
 10
126.9211910108424
 20
102.6818276955997
 10
127.7766087841442
 20
102.9035197363246
 10
127.7766087841442
 20
105.3547067911143
 97
        0
 75
     2
 76
     1
 98
        0
  0
SPLINE
  5
B5
330
3C
100
AcDbEntity
  8
Vrstva 1
370
     0
100
AcDbSpline
210
0.0
220
0.0
230
1.0
 70
    11
 71
     3
 72
    17
 73
    13
 74
     0
 42
0.0000000001
 43
0.0000000001
 40
0.0
 40
0.0
 40
0.0
 40
0.0
 40
1.0
 40
1.0
 40
1.0
 40
2.0
 40
2.0
 40
2.0
 40
3.0
 40
3.0
 40
3.0
 40
4.0
 40
4.0
 40
4.0
 40
4.0
 10
119.2506808527407
 20
114.1714009732898
 30
0.0
 10
116.0880811109318
 20
114.1714009732898
 30
0.0
 10
115.2033800066873
 20
112.2226814264988
 30
0.0
 10
115.2033800066873
 20
108.8254705273728
 30
0.0
 10
115.2033800066873
 20
105.3989762973041
 30
0.0
 10
116.0601758190923
 20
103.5978791894417
 30
0.0
 10
119.2506808527407
 20
103.5978791894417
 30
0.0
 10
122.4091464772399
 20
103.5978791894417
 30
0.0
 10
123.2821342491074
 20
105.3106095398124
 30
0.0
 10
123.2821342491074
 20
108.8254705273728
 30
0.0
 10
123.2821342491074
 20
112.2368063273065
 30
0.0
 10
122.4091464772399
 20
114.1714009732898
 30
0.0
 10
119.2506808527407
 20
114.1714009732898
 30
0.0
  0
HATCH
  5
B6
330
3C
100
AcDbEntity
  8
Vrstva 1
 62
   252
420
  8750471
100
AcDbHatch
 10
0.0
 20
0.0
 30
0.0
210
0.0
220
0.0
230
1.0
  2
SOLID
 70
     1
 71
     0
 91
        1
 92
        1
 93
        1
 72
     4
 94
        3
 73
     0
 74
     1
 95
       17
 96
       13
 40
0.0
 40
0.0
 40
0.0
 40
0.0
 40
1.0
 40
1.0
 40
1.0
 40
2.0
 40
2.0
 40
2.0
 40
3.0
 40
3.0
 40
3.0
 40
4.0
 40
4.0
 40
4.0
 40
4.0
 10
119.2506808527407
 20
114.1714009732898
 10
116.0880811109318
 20
114.1714009732898
 10
115.2033800066873
 20
112.2226814264988
 10
115.2033800066873
 20
108.8254705273728
 10
115.2033800066873
 20
105.3989762973041
 10
116.0601758190923
 20
103.5978791894417
 10
119.2506808527407
 20
103.5978791894417
 10
122.4091464772399
 20
103.5978791894417
 10
123.2821342491074
 20
105.3106095398124
 10
123.2821342491074
 20
108.8254705273728
 10
123.2821342491074
 20
112.2368063273065
 10
122.4091464772399
 20
114.1714009732898
 10
119.2506808527407
 20
114.1714009732898
 97
        0
 75
     2
 76
     1
 98
        0
  0
SPLINE
  5
B7
330
3C
100
AcDbEntity
  8
Vrstva 1
370
     0
100
AcDbSpline
210
0.0
220
0.0
230
1.0
 70
    11
 71
     3
 72
    35
 73
    31
 74
     0
 42
0.0000000001
 43
0.0000000001
 40
0.0
 40
0.0
 40
0.0
 40
0.0
 40
1.0
 40
1.0
 40
1.0
 40
2.0
 40
2.0
 40
2.0
 40
3.0
 40
3.0
 40
3.0
 40
4.0
 40
4.0
 40
4.0
 40
5.0
 40
5.0
 40
5.0
 40
6.0
 40
6.0
 40
6.0
 40
7.0
 40
7.0
 40
7.0
 40
8.0
 40
8.0
 40
8.0
 40
9.0
 40
9.0
 40
9.0
 40
10.0
 40
10.0
 40
10.0
 40
10.0
 10
107.2514053617601
 20
107.6293325858085
 30
0.0
 10
107.2514053617601
 20
107.6293325858085
 30
0.0
 10
110.1452874784479
 20
107.6293325858085
 30
0.0
 10
110.1452874784479
 20
107.6293325858085
 30
0.0
 10
110.1452874784479
 20
107.6293325858085
 30
0.0
 10
111.9928934060428
 20
103.7453293734825
 30
0.0
 10
111.9928934060428
 20
103.7453293734825
 30
0.0
 10
111.9928934060428
 20
103.7453293734825
 30
0.0
 10
113.2475980094924
 20
103.7453293734825
 30
0.0
 10
113.2475980094924
 20
103.7453293734825
 30
0.0
 10
113.2475980094924
 20
103.7453293734825
 30
0.0
 10
111.2828587581269
 20
107.9244052087779
 30
0.0
 10
111.2828587581269
 20
107.9244052087779
 30
0.0
 10
112.5975080625651
 20
108.3236920389257
 30
0.0
 10
113.1590589971128
 20
109.3129518601244
 30
0.0
 10
113.1590589971128
 20
110.8932182017014
 30
0.0
 10
113.1590589971128
 20
113.1087605698466
 30
0.0
 10
112.09555731923
 20
114.0237785343612
 30
0.0
 10
109.8944843616683
 20
114.0237785343612
 30
0.0
 10
109.8944843616683
 20
114.0237785343612
 30
0.0
 10
106.1138340820812
 20
114.0237785343612
 30
0.0
 10
106.1138340820812
 20
114.0237785343612
 30
0.0
 10
106.1138340820812
 20
114.0237785343612
 30
0.0
 10
106.1138340820812
 20
103.7453293734825
 30
0.0
 10
106.1138340820812
 20
103.7453293734825
 30
0.0
 10
106.1138340820812
 20
103.7453293734825
 30
0.0
 10
107.2514053617601
 20
103.7453293734825
 30
0.0
 10
107.2514053617601
 20
103.7453293734825
 30
0.0
 10
107.2514053617601
 20
103.7453293734825
 30
0.0
 10
107.2514053617601
 20
107.6293325858085
 30
0.0
 10
107.2514053617601
 20
107.6293325858085
 30
0.0
  0
HATCH
  5
B8
330
3C
100
AcDbEntity
  8
Vrstva 1
 62
   252
420
  8750471
100
AcDbHatch
 10
0.0
 20
0.0
 30
0.0
210
0.0
220
0.0
230
1.0
  2
SOLID
 70
     1
 71
     0
 91
        1
 92
        1
 93
        1
 72
     4
 94
        3
 73
     0
 74
     1
 95
       35
 96
       31
 40
0.0
 40
0.0
 40
0.0
 40
0.0
 40
1.0
 40
1.0
 40
1.0
 40
2.0
 40
2.0
 40
2.0
 40
3.0
 40
3.0
 40
3.0
 40
4.0
 40
4.0
 40
4.0
 40
5.0
 40
5.0
 40
5.0
 40
6.0
 40
6.0
 40
6.0
 40
7.0
 40
7.0
 40
7.0
 40
8.0
 40
8.0
 40
8.0
 40
9.0
 40
9.0
 40
9.0
 40
10.0
 40
10.0
 40
10.0
 40
10.0
 10
107.2514053617601
 20
107.6293325858085
 10
107.2514053617601
 20
107.6293325858085
 10
110.1452874784479
 20
107.6293325858085
 10
110.1452874784479
 20
107.6293325858085
 10
110.1452874784479
 20
107.6293325858085
 10
111.9928934060428
 20
103.7453293734825
 10
111.9928934060428
 20
103.7453293734825
 10
111.9928934060428
 20
103.7453293734825
 10
113.2475980094924
 20
103.7453293734825
 10
113.2475980094924
 20
103.7453293734825
 10
113.2475980094924
 20
103.7453293734825
 10
111.2828587581269
 20
107.9244052087779
 10
111.2828587581269
 20
107.9244052087779
 10
112.5975080625651
 20
108.3236920389257
 10
113.1590589971128
 20
109.3129518601244
 10
113.1590589971128
 20
110.8932182017014
 10
113.1590589971128
 20
113.1087605698466
 10
112.09555731923
 20
114.0237785343612
 10
109.8944843616683
 20
114.0237785343612
 10
109.8944843616683
 20
114.0237785343612
 10
106.1138340820812
 20
114.0237785343612
 10
106.1138340820812
 20
114.0237785343612
 10
106.1138340820812
 20
114.0237785343612
 10
106.1138340820812
 20
103.7453293734825
 10
106.1138340820812
 20
103.7453293734825
 10
106.1138340820812
 20
103.7453293734825
 10
107.2514053617601
 20
103.7453293734825
 10
107.2514053617601
 20
103.7453293734825
 10
107.2514053617601
 20
103.7453293734825
 10
107.2514053617601
 20
107.6293325858085
 10
107.2514053617601
 20
107.6293325858085
 97
        0
 75
     2
 76
     1
 98
        0
  0
SPLINE
  5
B9
330
3C
100
AcDbEntity
  8
Vrstva 1
370
     0
100
AcDbSpline
210
0.0
220
0.0
230
1.0
 70
    11
 71
     3
 72
    26
 73
    22
 74
     0
 42
0.0000000001
 43
0.0000000001
 40
0.0
 40
0.0
 40
0.0
 40
0.0
 40
1.0
 40
1.0
 40
1.0
 40
2.0
 40
2.0
 40
2.0
 40
3.0
 40
3.0
 40
3.0
 40
4.0
 40
4.0
 40
4.0
 40
5.0
 40
5.0
 40
5.0
 40
6.0
 40
6.0
 40
6.0
 40
7.0
 40
7.0
 40
7.0
 40
7.0
 10
97.86678681418456
 20
107.1859485043588
 30
0.0
 10
97.86678681418456
 20
107.1859485043588
 30
0.0
 10
100.4666298372304
 20
107.1859485043588
 30
0.0
 10
100.4666298372304
 20
107.1859485043588
 30
0.0
 10
102.6969861257348
 20
107.1859485043588
 30
0.0
 10
103.7287929042443
 20
108.5002532990212
 30
0.0
 10
103.7287929042443
 20
110.7307818424135
 30
0.0
 10
103.7287929042443
 20
112.9602768564784
 30
0.0
 10
102.6969861257348
 20
114.0237785343612
 30
0.0
 10
100.4666298372304
 20
114.0237785343612
 30
0.0
 10
100.4666298372304
 20
114.0237785343612
 30
0.0
 10
96.7300768089451
 20
114.0237785343612
 30
0.0
 10
96.7300768089451
 20
114.0237785343612
 30
0.0
 10
96.7300768089451
 20
114.0237785343612
 30
0.0
 10
96.7300768089451
 20
103.7453293734825
 30
0.0
 10
96.7300768089451
 20
103.7453293734825
 30
0.0
 10
96.7300768089451
 20
103.7453293734825
 30
0.0
 10
97.86678681418456
 20
103.7453293734825
 30
0.0
 10
97.86678681418456
 20
103.7453293734825
 30
0.0
 10
97.86678681418456
 20
103.7453293734825
 30
0.0
 10
97.86678681418456
 20
107.1859485043588
 30
0.0
 10
97.86678681418456
 20
107.1859485043588
 30
0.0
  0
HATCH
  5
BA
330
3C
100
AcDbEntity
  8
Vrstva 1
 62
   252
420
  8750471
100
AcDbHatch
 10
0.0
 20
0.0
 30
0.0
210
0.0
220
0.0
230
1.0
  2
SOLID
 70
     1
 71
     0
 91
        1
 92
        1
 93
        1
 72
     4
 94
        3
 73
     0
 74
     1
 95
       26
 96
       22
 40
0.0
 40
0.0
 40
0.0
 40
0.0
 40
1.0
 40
1.0
 40
1.0
 40
2.0
 40
2.0
 40
2.0
 40
3.0
 40
3.0
 40
3.0
 40
4.0
 40
4.0
 40
4.0
 40
5.0
 40
5.0
 40
5.0
 40
6.0
 40
6.0
 40
6.0
 40
7.0
 40
7.0
 40
7.0
 40
7.0
 10
97.86678681418456
 20
107.1859485043588
 10
97.86678681418456
 20
107.1859485043588
 10
100.4666298372304
 20
107.1859485043588
 10
100.4666298372304
 20
107.1859485043588
 10
102.6969861257348
 20
107.1859485043588
 10
103.7287929042443
 20
108.5002532990212
 10
103.7287929042443
 20
110.7307818424135
 10
103.7287929042443
 20
112.9602768564784
 10
102.6969861257348
 20
114.0237785343612
 10
100.4666298372304
 20
114.0237785343612
 10
100.4666298372304
 20
114.0237785343612
 10
96.7300768089451
 20
114.0237785343612
 10
96.7300768089451
 20
114.0237785343612
 10
96.7300768089451
 20
114.0237785343612
 10
96.7300768089451
 20
103.7453293734825
 10
96.7300768089451
 20
103.7453293734825
 10
96.7300768089451
 20
103.7453293734825
 10
97.86678681418456
 20
103.7453293734825
 10
97.86678681418456
 20
103.7453293734825
 10
97.86678681418456
 20
103.7453293734825
 10
97.86678681418456
 20
107.1859485043588
 10
97.86678681418456
 20
107.1859485043588
 97
        0
 75
     2
 76
     1
 98
        0
  0
SPLINE
  5
BB
330
3C
100
AcDbEntity
  8
Vrstva 1
370
     0
100
AcDbSpline
210
0.0
220
0.0
230
1.0
 70
    11
 71
     3
 72
    32
 73
    28
 74
     0
 42
0.0000000001
 43
0.0000000001
 40
0.0
 40
0.0
 40
0.0
 40
0.0
 40
1.0
 40
1.0
 40
1.0
 40
2.0
 40
2.0
 40
2.0
 40
3.0
 40
3.0
 40
3.0
 40
4.0
 40
4.0
 40
4.0
 40
5.0
 40
5.0
 40
5.0
 40
6.0
 40
6.0
 40
6.0
 40
7.0
 40
7.0
 40
7.0
 40
8.0
 40
8.0
 40
8.0
 40
9.0
 40
9.0
 40
9.0
 40
9.0
 10
35.17151977569457
 20
114.771192492951
 30
0.0
 10
35.17151977569457
 20
114.771192492951
 30
0.0
 10
35.17151977569457
 20
108.4888844764199
 30
0.0
 10
35.17151977569457
 20
108.4888844764199
 30
0.0
 10
39.97949820670591
 20
108.4888844764199
 30
0.0
 10
43.87762631983956
 20
104.5905841083984
 30
0.0
 10
43.87762631983956
 20
99.78105538339598
 30
0.0
 10
43.87762631983956
 20
94.97376597193623
 30
0.0
 10
39.97949820670591
 20
91.07632687835418
 30
0.0
 10
35.17151977569457
 20
91.07632687835418
 30
0.0
 10
35.17151977569457
 20
91.07632687835418
 30
0.0
 10
35.17151977569457
 20
78.29122458878255
 30
0.0
 10
35.17151977569457
 20
78.29122458878255
 30
0.0
 10
35.17151977569457
 20
78.29122458878255
 30
0.0
 10
38.31069285274926
 20
74.6625031203215
 30
0.0
 10
38.31069285274926
 20
74.6625031203215
 30
0.0
 10
38.31069285274926
 20
74.6625031203215
 30
0.0
 10
41.45279426289822
 20
78.29122458878255
 30
0.0
 10
41.45279426289822
 20
78.29122458878255
 30
0.0
 10
41.45279426289822
 20
78.29122458878255
 30
0.0
 10
41.45279426289822
 20
86.17050767101674
 30
0.0
 10
41.45279426289822
 20
86.17050767101674
 30
0.0
 10
46.59305237266496
 20
88.54693610445871
 30
0.0
 10
50.1589008070432
 20
93.74765567987767
 30
0.0
 10
50.1589008070432
 20
99.78105538339598
 30
0.0
 10
50.1589008070432
 20
108.0604865702174
 30
0.0
 10
43.44905615874912
 20
114.771192492951
 30
0.0
 10
35.17151977569457
 20
114.771192492951
 30
0.0
  0
HATCH
  5
BC
330
3C
100
AcDbEntity
  8
Vrstva 1
 62
   145
420
  4686523
100
AcDbHatch
 10
0.0
 20
0.0
 30
0.0
210
0.0
220
0.0
230
1.0
  2
SOLID
 70
     1
 71
     0
 91
        1
 92
        1
 93
        1
 72
     4
 94
        3
 73
     0
 74
     1
 95
       32
 96
       28
 40
0.0
 40
0.0
 40
0.0
 40
0.0
 40
1.0
 40
1.0
 40
1.0
 40
2.0
 40
2.0
 40
2.0
 40
3.0
 40
3.0
 40
3.0
 40
4.0
 40
4.0
 40
4.0
 40
5.0
 40
5.0
 40
5.0
 40
6.0
 40
6.0
 40
6.0
 40
7.0
 40
7.0
 40
7.0
 40
8.0
 40
8.0
 40
8.0
 40
9.0
 40
9.0
 40
9.0
 40
9.0
 10
35.17151977569457
 20
114.771192492951
 10
35.17151977569457
 20
114.771192492951
 10
35.17151977569457
 20
108.4888844764199
 10
35.17151977569457
 20
108.4888844764199
 10
39.97949820670591
 20
108.4888844764199
 10
43.87762631983956
 20
104.5905841083984
 10
43.87762631983956
 20
99.78105538339598
 10
43.87762631983956
 20
94.97376597193623
 10
39.97949820670591
 20
91.07632687835418
 10
35.17151977569457
 20
91.07632687835418
 10
35.17151977569457
 20
91.07632687835418
 10
35.17151977569457
 20
78.29122458878255
 10
35.17151977569457
 20
78.29122458878255
 10
35.17151977569457
 20
78.29122458878255
 10
38.31069285274926
 20
74.6625031203215
 10
38.31069285274926
 20
74.6625031203215
 10
38.31069285274926
 20
74.6625031203215
 10
41.45279426289822
 20
78.29122458878255
 10
41.45279426289822
 20
78.29122458878255
 10
41.45279426289822
 20
78.29122458878255
 10
41.45279426289822
 20
86.17050767101674
 10
41.45279426289822
 20
86.17050767101674
 10
46.59305237266496
 20
88.54693610445871
 10
50.1589008070432
 20
93.74765567987767
 10
50.1589008070432
 20
99.78105538339598
 10
50.1589008070432
 20
108.0604865702174
 10
43.44905615874912
 20
114.771192492951
 10
35.17151977569457
 20
114.771192492951
 97
        0
 75
     2
 76
     1
 98
        0
  0
SPLINE
  5
BD
330
3C
100
AcDbEntity
  8
Vrstva 1
370
     0
100
AcDbSpline
210
0.0
220
0.0
230
1.0
 70
    11
 71
     3
 72
    32
 73
    28
 74
     0
 42
0.0000000001
 43
0.0000000001
 40
0.0
 40
0.0
 40
0.0
 40
0.0
 40
1.0
 40
1.0
 40
1.0
 40
2.0
 40
2.0
 40
2.0
 40
3.0
 40
3.0
 40
3.0
 40
4.0
 40
4.0
 40
4.0
 40
5.0
 40
5.0
 40
5.0
 40
6.0
 40
6.0
 40
6.0
 40
7.0
 40
7.0
 40
7.0
 40
8.0
 40
8.0
 40
8.0
 40
9.0
 40
9.0
 40
9.0
 40
9.0
 10
61.56716977764544
 20
121.2724364720005
 30
0.0
 10
61.56716977764544
 20
121.2724364720005
 30
0.0
 10
61.56716977764544
 20
113.3931533897663
 30
0.0
 10
61.56716977764544
 20
113.3931533897663
 30
0.0
 10
56.4270839227666
 20
111.0168972112122
 30
0.0
 10
52.86020195906097
 20
105.8168666553449
 30
0.0
 10
52.86020195906097
 20
99.78105538339598
 30
0.0
 10
52.86020195906097
 20
91.50214096123824
 30
0.0
 10
59.57090788179454
 20
84.79246856783206
 30
0.0
 10
67.84947779417648
 20
84.79246856783206
 30
0.0
 10
67.84947779417648
 20
84.79246856783206
 30
0.0
 10
67.84947779417648
 20
91.07632687835418
 30
0.0
 10
67.84947779417648
 20
91.07632687835418
 30
0.0
 10
63.04063808872565
 20
91.07632687835418
 30
0.0
 10
59.1423377207041
 20
94.97376597193623
 30
0.0
 10
59.1423377207041
 20
99.78105538339598
 30
0.0
 10
59.1423377207041
 20
104.5905841083984
 30
0.0
 10
63.04063808872565
 20
108.4888844764199
 30
0.0
 10
67.84947779417648
 20
108.4888844764199
 30
0.0
 10
67.84947779417648
 20
108.4888844764199
 30
0.0
 10
67.84947779417648
 20
121.2724364720005
 30
0.0
 10
67.84947779417648
 20
121.2724364720005
 30
0.0
 10
67.84947779417648
 20
121.2724364720005
 30
0.0
 10
64.7090989329065
 20
124.8994353915825
 30
0.0
 10
64.7090989329065
 20
124.8994353915825
 30
0.0
 10
64.7090989329065
 20
124.8994353915825
 30
0.0
 10
61.56716977764544
 20
121.2724364720005
 30
0.0
 10
61.56716977764544
 20
121.2724364720005
 30
0.0
  0
HATCH
  5
BE
330
3C
100
AcDbEntity
  8
Vrstva 1
 62
   145
420
  4686523
100
AcDbHatch
 10
0.0
 20
0.0
 30
0.0
210
0.0
220
0.0
230
1.0
  2
SOLID
 70
     1
 71
     0
 91
        1
 92
        1
 93
        1
 72
     4
 94
        3
 73
     0
 74
     1
 95
       32
 96
       28
 40
0.0
 40
0.0
 40
0.0
 40
0.0
 40
1.0
 40
1.0
 40
1.0
 40
2.0
 40
2.0
 40
2.0
 40
3.0
 40
3.0
 40
3.0
 40
4.0
 40
4.0
 40
4.0
 40
5.0
 40
5.0
 40
5.0
 40
6.0
 40
6.0
 40
6.0
 40
7.0
 40
7.0
 40
7.0
 40
8.0
 40
8.0
 40
8.0
 40
9.0
 40
9.0
 40
9.0
 40
9.0
 10
61.56716977764544
 20
121.2724364720005
 10
61.56716977764544
 20
121.2724364720005
 10
61.56716977764544
 20
113.3931533897663
 10
61.56716977764544
 20
113.3931533897663
 10
56.4270839227666
 20
111.0168972112122
 10
52.86020195906097
 20
105.8168666553449
 10
52.86020195906097
 20
99.78105538339598
 10
52.86020195906097
 20
91.50214096123824
 10
59.57090788179454
 20
84.79246856783206
 10
67.84947779417648
 20
84.79246856783206
 10
67.84947779417648
 20
84.79246856783206
 10
67.84947779417648
 20
91.07632687835418
 10
67.84947779417648
 20
91.07632687835418
 10
63.04063808872565
 20
91.07632687835418
 10
59.1423377207041
 20
94.97376597193623
 10
59.1423377207041
 20
99.78105538339598
 10
59.1423377207041
 20
104.5905841083984
 10
63.04063808872565
 20
108.4888844764199
 10
67.84947779417648
 20
108.4888844764199
 10
67.84947779417648
 20
108.4888844764199
 10
67.84947779417648
 20
121.2724364720005
 10
67.84947779417648
 20
121.2724364720005
 10
67.84947779417648
 20
121.2724364720005
 10
64.7090989329065
 20
124.8994353915825
 10
64.7090989329065
 20
124.8994353915825
 10
64.7090989329065
 20
124.8994353915825
 10
61.56716977764544
 20
121.2724364720005
 10
61.56716977764544
 20
121.2724364720005
 97
        0
 75
     2
 76
     1
 98
        0
  0
SPLINE
  5
BF
330
3C
100
AcDbEntity
  8
Vrstva 1
370
     0
100
AcDbSpline
210
0.0
220
0.0
230
1.0
 70
    11
 71
     3
 72
    32
 73
    28
 74
     0
 42
0.0000000001
 43
0.0000000001
 40
0.0
 40
0.0
 40
0.0
 40
0.0
 40
1.0
 40
1.0
 40
1.0
 40
2.0
 40
2.0
 40
2.0
 40
3.0
 40
3.0
 40
3.0
 40
4.0
 40
4.0
 40
4.0
 40
5.0
 40
5.0
 40
5.0
 40
6.0
 40
6.0
 40
6.0
 40
7.0
 40
7.0
 40
7.0
 40
8.0
 40
8.0
 40
8.0
 40
9.0
 40
9.0
 40
9.0
 40
9.0
 10
71.76173080811776
 20
114.771192492951
 30
0.0
 10
71.76173080811776
 20
114.771192492951
 30
0.0
 10
71.76173080811776
 20
108.4888844764199
 30
0.0
 10
71.76173080811776
 20
108.4888844764199
 30
0.0
 10
76.57143178800808
 20
108.4888844764199
 30
0.0
 10
80.46783735226275
 20
104.5905841083984
 30
0.0
 10
80.46783735226275
 20
99.78105538339598
 30
0.0
 10
80.46783735226275
 20
94.97376597193623
 30
0.0
 10
76.57143178800808
 20
91.07632687835418
 30
0.0
 10
71.76173080811776
 20
91.07632687835418
 30
0.0
 10
71.76173080811776
 20
91.07632687835418
 30
0.0
 10
71.76173080811776
 20
78.29122458878255
 30
0.0
 10
71.76173080811776
 20
78.29122458878255
 30
0.0
 10
71.76173080811776
 20
78.29122458878255
 30
0.0
 10
74.90383221826673
 20
74.6625031203215
 30
0.0
 10
74.90383221826673
 20
74.6625031203215
 30
0.0
 10
74.90383221826673
 20
74.6625031203215
 30
0.0
 10
78.04386656976091
 20
78.29122458878255
 30
0.0
 10
78.04386656976091
 20
78.29122458878255
 30
0.0
 10
78.04386656976091
 20
78.29122458878255
 30
0.0
 10
78.04386656976091
 20
86.17050767101674
 30
0.0
 10
78.04386656976091
 20
86.17050767101674
 30
0.0
 10
83.18412467952764
 20
88.54693610445871
 30
0.0
 10
86.75100664323328
 20
93.74765567987767
 30
0.0
 10
86.75100664323328
 20
99.78105538339598
 30
0.0
 10
86.75100664323328
 20
108.0604865702174
 30
0.0
 10
80.03943944606021
 20
114.771192492951
 30
0.0
 10
71.76173080811776
 20
114.771192492951
 30
0.0
  0
HATCH
  5
C0
330
3C
100
AcDbEntity
  8
Vrstva 1
 62
   145
420
  4686523
100
AcDbHatch
 10
0.0
 20
0.0
 30
0.0
210
0.0
220
0.0
230
1.0
  2
SOLID
 70
     1
 71
     0
 91
        1
 92
        1
 93
        1
 72
     4
 94
        3
 73
     0
 74
     1
 95
       32
 96
       28
 40
0.0
 40
0.0
 40
0.0
 40
0.0
 40
1.0
 40
1.0
 40
1.0
 40
2.0
 40
2.0
 40
2.0
 40
3.0
 40
3.0
 40
3.0
 40
4.0
 40
4.0
 40
4.0
 40
5.0
 40
5.0
 40
5.0
 40
6.0
 40
6.0
 40
6.0
 40
7.0
 40
7.0
 40
7.0
 40
8.0
 40
8.0
 40
8.0
 40
9.0
 40
9.0
 40
9.0
 40
9.0
 10
71.76173080811776
 20
114.771192492951
 10
71.76173080811776
 20
114.771192492951
 10
71.76173080811776
 20
108.4888844764199
 10
71.76173080811776
 20
108.4888844764199
 10
76.57143178800808
 20
108.4888844764199
 10
80.46783735226275
 20
104.5905841083984
 10
80.46783735226275
 20
99.78105538339598
 10
80.46783735226275
 20
94.97376597193623
 10
76.57143178800808
 20
91.07632687835418
 10
71.76173080811776
 20
91.07632687835418
 10
71.76173080811776
 20
91.07632687835418
 10
71.76173080811776
 20
78.29122458878255
 10
71.76173080811776
 20
78.29122458878255
 10
71.76173080811776
 20
78.29122458878255
 10
74.90383221826673
 20
74.6625031203215
 10
74.90383221826673
 20
74.6625031203215
 10
74.90383221826673
 20
74.6625031203215
 10
78.04386656976091
 20
78.29122458878255
 10
78.04386656976091
 20
78.29122458878255
 10
78.04386656976091
 20
78.29122458878255
 10
78.04386656976091
 20
86.17050767101674
 10
78.04386656976091
 20
86.17050767101674
 10
83.18412467952764
 20
88.54693610445871
 10
86.75100664323328
 20
93.74765567987767
 10
86.75100664323328
 20
99.78105538339598
 10
86.75100664323328
 20
108.0604865702174
 10
80.03943944606021
 20
114.771192492951
 10
71.76173080811776
 20
114.771192492951
 97
        0
 75
     2
 76
     1
 98
        0
  0
ENDBLK
  5
3F
330
3C
100
AcDbEntity
  8
0
100
AcDbBlockEnd
  0
ENDSEC
  0
SECTION
  2
ENTITIES
  0
INSERT
  5
3D
330
1F
100
AcDbEntity
  8
Vrstva 1
100
AcDbBlockReference
  2
block 2
 10
0.0
 20
0.0
 30
0.0
  0
ENDSEC
  0
SECTION
  2
OBJECTS
  0
DICTIONARY
  5
C
330
0
100
AcDbDictionary
281
     1
  3
ACAD_GROUP
350
D
  3
ACAD_LAYOUT
350
1A
  3
ACAD_MLINESTYLE
350
17
  3
ACAD_PLOTSETTINGS
350
19
  3
ACAD_PLOTSTYLENAME
350
E
  3
ACAD_TABLESTYLE
350
C1
  3
ACAD_VISUALSTYLE
350
2A
  0
DICTIONARY
  5
D
102
{ACAD_REACTORS
330
C
102
}
330
C
100
AcDbDictionary
281
     1
  0
DICTIONARY
  5
1A
102
{ACAD_REACTORS
330
C
102
}
330
C
100
AcDbDictionary
281
     1
  3
Layout1
350
1E
  3
Layout2
350
26
  3
Model
350
22
  0
DICTIONARY
  5
17
102
{ACAD_REACTORS
330
C
102
}
330
C
100
AcDbDictionary
281
     1
  3
Standard
350
18
  0
DICTIONARY
  5
19
102
{ACAD_REACTORS
330
C
102
}
330
C
100
AcDbDictionary
281
     1
  0
ACDBDICTIONARYWDFLT
  5
E
102
{ACAD_REACTORS
330
C
102
}
330
C
100
AcDbDictionary
281
     1
  3
Normal
350
F
100
AcDbDictionaryWithDefault
340
F
  0
DICTIONARY
  5
C1
102
{ACAD_REACTORS
330
C
102
}
330
C
100
AcDbDictionary
281
     1
  0
DICTIONARY
  5
2A
102
{ACAD_REACTORS
330
C
102
}
330
C
100
AcDbDictionary
281
     1
  3
2dWireframe
350
2F
  3
3D Hidden
350
31
  3
3dWireframe
350
30
  3
Basic
350
32
  3
Brighten
350
36
  3
ColorChange
350
3A
  3
Conceptual
350
34
  3
Dim
350
35
  3
Facepattern
350
39
  3
Flat
350
2B
  3
FlatWithEdges
350
2C
  3
Gouraud
350
2D
  3
GouraudWithEdges
350
2E
  3
Linepattern
350
38
  3
Realistic
350
33
  3
Thicken
350
37
  0
LAYOUT
  5
1E
102
{ACAD_REACTORS
330
1A
102
}
330
1A
100
AcDbPlotSettings
  1

  2
none_device
  4

  6

 40
0.0
 41
0.0
 42
0.0
 43
0.0
 44
0.0
 45
0.0
 46
0.0
 47
0.0
 48
0.0
 49
0.0
140
0.0
141
0.0
142
1.0
143
1.0
 70
   688
 72
     0
 73
     0
 74
     5
  7

 75
    16
 76
     0
 77
     2
 78
   300
147
1.0
148
0.0
149
0.0
100
AcDbLayout
  1
Layout1
 70
     1
 71
     1
 10
0.0
 20
0.0
 11
12.0
 21
9.0
 12
0.0
 22
0.0
 32
0.0
 14
1.000000000000000E+20
 24
1.000000000000000E+20
 34
1.000000000000000E+20
 15
-1.000000000000000E+20
 25
-1.000000000000000E+20
 35
-1.000000000000000E+20
146
0.0
 13
0.0
 23
0.0
 33
0.0
 16
1.0
 26
0.0
 36
0.0
 17
0.0
 27
1.0
 37
0.0
 76
     0
330
1B
  0
LAYOUT
  5
26
102
{ACAD_REACTORS
330
1A
102
}
330
1A
100
AcDbPlotSettings
  1

  2
none_device
  4

  6

 40
0.0
 41
0.0
 42
0.0
 43
0.0
 44
0.0
 45
0.0
 46
0.0
 47
0.0
 48
0.0
 49
0.0
140
0.0
141
0.0
142
1.0
143
1.0
 70
   688
 72
     0
 73
     0
 74
     5
  7

 75
    16
 76
     0
 77
     2
 78
   300
147
1.0
148
0.0
149
0.0
100
AcDbLayout
  1
Layout2
 70
     1
 71
     2
 10
0.0
 20
0.0
 11
0.0
 21
0.0
 12
0.0
 22
0.0
 32
0.0
 14
0.0
 24
0.0
 34
0.0
 15
0.0
 25
0.0
 35
0.0
146
0.0
 13
0.0
 23
0.0
 33
0.0
 16
1.0
 26
0.0
 36
0.0
 17
0.0
 27
1.0
 37
0.0
 76
     0
330
23
  0
LAYOUT
  5
22
102
{ACAD_REACTORS
330
1A
102
}
330
1A
100
AcDbPlotSettings
  1

  2
none_device
  4

  6

 40
0.0
 41
0.0
 42
0.0
 43
0.0
 44
0.0
 45
0.0
 46
0.0
 47
0.0
 48
0.0
 49
0.0
140
0.0
141
0.0
142
1.0
143
1.0
 70
  1712
 72
     0
 73
     0
 74
     0
  7

 75
     0
 76
     0
 77
     2
 78
   300
147
1.0
148
0.0
149
0.0
100
AcDbLayout
  1
Model
 70
     1
 71
     0
 10
0.0
 20
0.0
 11
12.0
 21
9.0
 12
0.0
 22
0.0
 32
0.0
 14
1.000000000000000E+20
 24
1.000000000000000E+20
 34
1.000000000000000E+20
 15
-1.000000000000000E+20
 25
-1.000000000000000E+20
 35
-1.000000000000000E+20
146
0.0
 13
0.0
 23
0.0
 33
0.0
 16
1.0
 26
0.0
 36
0.0
 17
0.0
 27
1.0
 37
0.0
 76
     0
330
1F
331
29
  0
MLINESTYLE
  5
18
102
{ACAD_REACTORS
330
17
102
}
330
17
100
AcDbMlineStyle
  2
Standard
 70
     0
  3

 62
   256
 51
90.0
 52
90.0
 71
     2
 49
0.5
 62
   256
  6
BYLAYER
 49
-0.5
 62
   256
  6
BYLAYER
  0
ACDBPLACEHOLDER
  5
F
102
{ACAD_REACTORS
330
E
102
}
330
E
  0
VISUALSTYLE
  5
2F
102
{ACAD_REACTORS
330
2A
102
}
330
2A
100
AcDbVisualStyle
  2
2dWireframe
 70
     4
 71
     0
 72
     2
 73
     0
 90
        0
 40
-0.6
 41
-30.0
 62
     5
 63
     7
421
 16777215
 74
     1
 91
        4
 64
     7
 65
   257
 75
     1
175
     1
 42
1.0
 92
        0
 66
   257
 43
1.0
 76
     1
 77
     6
 78
     2
 67
     7
 79
     5
170
     0
171
     0
290
     0
174
     0
 93
        1
 44
0.0
173
     0
291
     0
 45
0.0
1001
ACAD
1000
AcDbSavedByObjectVersion
1070
     0
  0
VISUALSTYLE
  5
31
102
{ACAD_REACTORS
330
2A
102
}
330
2A
100
AcDbVisualStyle
  2
3D Hidden
 70
     6
 71
     1
 72
     2
 73
     2
 90
        0
 40
-0.6
 41
-30.0
 62
     5
 63
     7
421
 16777215
 74
     2
 91
        2
 64
     7
 65
   257
 75
     2
175
     1
 42
40.0
 92
        0
 66
   257
 43
1.0
 76
     1
 77
     6
 78
     2
 67
     7
 79
     3
170
     0
171
     0
290
     0
174
     0
 93
        1
 44
0.0
173
     0
291
     0
 45
0.0
1001
ACAD
1000
AcDbSavedByObjectVersion
1070
     0
  0
VISUALSTYLE
  5
30
102
{ACAD_REACTORS
330
2A
102
}
330
2A
100
AcDbVisualStyle
  2
3dWireframe
 70
     5
 71
     0
 72
     2
 73
     0
 90
        0
 40
-0.6
 41
-30.0
 62
     5
 63
     7
421
 16777215
 74
     1
 91
        4
 64
     7
 65
   257
 75
     1
175
     1
 42
1.0
 92
        0
 66
   257
 43
1.0
 76
     1
 77
     6
 78
     2
 67
     7
 79
     5
170
     0
171
     0
290
     0
174
     0
 93
        1
 44
0.0
173
     0
291
     0
 45
0.0
1001
ACAD
1000
AcDbSavedByObjectVersion
1070
     0
  0
VISUALSTYLE
  5
32
102
{ACAD_REACTORS
330
2A
102
}
330
2A
100
AcDbVisualStyle
  2
Basic
 70
     7
 71
     1
 72
     0
 73
     1
 90
        0
 40
-0.6
 41
-30.0
 62
     5
 63
     7
421
 16777215
 74
     0
 91
        4
 64
     7
 65
   257
 75
     1
175
     1
 42
1.0
 92
        8
 66
     7
 43
1.0
 76
     1
 77
     6
 78
     2
 67
     7
 79
     5
170
     0
171
     0
290
     0
174
     0
 93
        1
 44
0.0
173
     0
291
     1
 45
0.0
1001
ACAD
1000
AcDbSavedByObjectVersion
1070
     0
  0
VISUALSTYLE
  5
36
102
{ACAD_REACTORS
330
2A
102
}
330
2A
100
AcDbVisualStyle
  2
Brighten
 70
    12
 71
     2
 72
     2
 73
     0
 90
        0
 40
-0.6
 41
-30.0
 62
     5
 63
     7
421
 16777215
 74
     1
 91
        4
 64
     7
 65
   257
 75
     1
175
     1
 42
1.0
 92
        8
 66
     7
 43
1.0
 76
     1
 77
     6
 78
     2
 67
     7
 79
     5
170
     0
171
     0
290
     0
174
     0
 93
        1
 44
50.0
173
     0
291
     1
 45
0.0
1001
ACAD
1000
AcDbSavedByObjectVersion
1070
     0
  0
VISUALSTYLE
  5
3A
102
{ACAD_REACTORS
330
2A
102
}
330
2A
100
AcDbVisualStyle
  2
ColorChange
 70
    16
 71
     2
 72
     2
 73
     3
 90
        0
 40
-0.6
 41
-30.0
 62
     5
 63
     8
421
  8421504
 74
     1
 91
        4
 64
     7
 65
   257
 75
     1
175
     1
 42
1.0
 92
        8
 66
     8
424
  8421504
 43
1.0
 76
     1
 77
     6
 78
     2
 67
     7
 79
     5
170
     0
171
     0
290
     0
174
     0
 93
        1
 44
0.0
173
     0
291
     1
 45
0.0
1001
ACAD
1000
AcDbSavedByObjectVersion
1070
     0
  0
VISUALSTYLE
  5
34
102
{ACAD_REACTORS
330
2A
102
}
330
2A
100
AcDbVisualStyle
  2
Conceptual
 70
     9
 71
     3
 72
     2
 73
     0
 90
        0
 40
-0.6
 41
-30.0
 62
     5
 63
     7
421
 16777215
 74
     2
 91
        2
 64
     7
 65
   257
 75
     1
175
     1
 42
40.0
 92
        8
 66
     7
 43
1.0
 76
     1
 77
     6
 78
     2
 67
     7
 79
     3
170
     0
171
     0
290
     0
174
     0
 93
        1
 44
0.0
173
     0
291
     0
 45
0.0
1001
ACAD
1000
AcDbSavedByObjectVersion
1070
     0
  0
VISUALSTYLE
  5
35
102
{ACAD_REACTORS
330
2A
102
}
330
2A
100
AcDbVisualStyle
  2
Dim
 70
    11
 71
     2
 72
     2
 73
     0
 90
        0
 40
-0.6
 41
-30.0
 62
     5
 63
     7
421
 16777215
 74
     1
 91
        4
 64
     7
 65
   257
 75
     1
175
     1
 42
1.0
 92
        8
 66
     7
 43
1.0
 76
     1
 77
     6
 78
     2
 67
     7
 79
     5
170
     0
171
     0
290
     0
174
     0
 93
        1
 44
-50.0
173
     0
291
     1
 45
0.0
1001
ACAD
1000
AcDbSavedByObjectVersion
1070
     0
  0
VISUALSTYLE
  5
39
102
{ACAD_REACTORS
330
2A
102
}
330
2A
100
AcDbVisualStyle
  2
Facepattern
 70
    15
 71
     2
 72
     2
 73
     0
 90
        0
 40
-0.6
 41
-30.0
 62
     5
 63
     7
421
 16777215
 74
     1
 91
        4
 64
     7
 65
   257
 75
     1
175
     1
 42
1.0
 92
        8
 66
     7
 43
1.0
 76
     1
 77
     6
 78
     2
 67
     7
 79
     5
170
     0
171
     0
290
     0
174
     0
 93
        1
 44
0.0
173
     0
291
     1
 45
0.0
1001
ACAD
1000
AcDbSavedByObjectVersion
1070
     0
  0
VISUALSTYLE
  5
2B
102
{ACAD_REACTORS
330
2A
102
}
330
2A
100
AcDbVisualStyle
  2
Flat
 70
     0
 71
     2
 72
     1
 73
     1
 90
        2
 40
-0.6
 41
30.0
 62
     5
 63
     7
421
 16777215
 74
     0
 91
        4
 64
     7
 65
   257
 75
     1
175
     1
 42
1.0
 92
        8
 66
     7
 43
1.0
 76
     1
 77
     6
 78
     2
 67
     7
 79
     5
170
     0
171
     0
290
     0
174
     0
 93
       13
 44
0.0
173
     0
291
     1
 45
0.0
1001
ACAD
1000
AcDbSavedByObjectVersion
1070
     0
  0
VISUALSTYLE
  5
2C
102
{ACAD_REACTORS
330
2A
102
}
330
2A
100
AcDbVisualStyle
  2
FlatWithEdges
 70
     1
 71
     2
 72
     1
 73
     1
 90
        2
 40
-0.6
 41
30.0
 62
     5
 63
     7
421
 16777215
 74
     1
 91
        4
 64
     7
 65
   257
 75
     1
175
     1
 42
1.0
 92
        0
 66
   257
 43
1.0
 76
     1
 77
     6
 78
     2
 67
     7
 79
     5
170
     0
171
     0
290
     0
174
     0
 93
       13
 44
0.0
173
     0
291
     1
 45
0.0
1001
ACAD
1000
AcDbSavedByObjectVersion
1070
     0
  0
VISUALSTYLE
  5
2D
102
{ACAD_REACTORS
330
2A
102
}
330
2A
100
AcDbVisualStyle
  2
Gouraud
 70
     2
 71
     2
 72
     2
 73
     1
 90
        2
 40
-0.6
 41
30.0
 62
     5
 63
     7
421
 16777215
 74
     0
 91
        4
 64
     7
 65
   257
 75
     1
175
     1
 42
1.0
 92
        0
 66
     7
 43
1.0
 76
     1
 77
     6
 78
     2
 67
     7
 79
     5
170
     0
171
     0
290
     0
174
     0
 93
       13
 44
0.0
173
     0
291
     1
 45
0.0
1001
ACAD
1000
AcDbSavedByObjectVersion
1070
     0
  0
VISUALSTYLE
  5
2E
102
{ACAD_REACTORS
330
2A
102
}
330
2A
100
AcDbVisualStyle
  2
GouraudWithEdges
 70
     3
 71
     2
 72
     2
 73
     1
 90
        2
 40
-0.6
 41
30.0
 62
     5
 63
     7
421
 16777215
 74
     1
 91
        4
 64
     7
 65
   257
 75
     1
175
     1
 42
1.0
 92
        0
 66
   257
 43
1.0
 76
     1
 77
     6
 78
     2
 67
     7
 79
     5
170
     0
171
     0
290
     0
174
     0
 93
       13
 44
0.0
173
     0
291
     1
 45
0.0
1001
ACAD
1000
AcDbSavedByObjectVersion
1070
     0
  0
VISUALSTYLE
  5
38
102
{ACAD_REACTORS
330
2A
102
}
330
2A
100
AcDbVisualStyle
  2
Linepattern
 70
    14
 71
     2
 72
     2
 73
     0
 90
        0
 40
-0.6
 41
-30.0
 62
     5
 63
     7
421
 16777215
 74
     1
 91
        4
 64
     7
 65
   257
 75
     7
175
     7
 42
1.0
 92
        8
 66
     7
 43
1.0
 76
     1
 77
     6
 78
     2
 67
     7
 79
     5
170
     0
171
     0
290
     0
174
     0
 93
        1
 44
0.0
173
     0
291
     1
 45
0.0
1001
ACAD
1000
AcDbSavedByObjectVersion
1070
     0
  0
VISUALSTYLE
  5
33
102
{ACAD_REACTORS
330
2A
102
}
330
2A
100
AcDbVisualStyle
  2
Realistic
 70
     8
 71
     2
 72
     2
 73
     0
 90
        0
 40
-0.6
 41
-30.0
 62
     5
 63
     7
421
 16777215
 74
     1
 91
        0
 64
     7
 65
   257
 75
     1
175
     1
 42
1.0
 92
        8
 66
     8
424
  7895160
 43
1.0
 76
     1
 77
     6
 78
     2
 67
     7
 79
     5
170
     0
171
     0
290
     0
174
     0
 93
       13
 44
0.0
173
     0
291
     0
 45
0.0
1001
ACAD
1000
AcDbSavedByObjectVersion
1070
     0
  0
VISUALSTYLE
  5
37
102
{ACAD_REACTORS
330
2A
102
}
330
2A
100
AcDbVisualStyle
  2
Thicken
 70
    13
 71
     2
 72
     2
 73
     0
 90
        0
 40
-0.6
 41
-30.0
 62
     5
 63
     7
421
 16777215
 74
     1
 91
        4
 64
     7
 65
   257
 75
     1
175
     1
 42
1.0
 92
       12
 66
     7
 43
1.0
 76
     1
 77
     6
 78
     2
 67
     7
 79
     5
170
     0
171
     0
290
     0
174
     0
 93
        1
 44
0.0
173
     0
291
     1
 45
0.0
1001
ACAD
1000
AcDbSavedByObjectVersion
1070
     0
  0
ENDSEC
  0
EOF
